Normal Like You
As recorded by Everclear on "So Much for the Afterglow" LP
Tabbed by Jason P (jasonsevercleartabs@hotmail.com)

VERSION 1 - Tabbed by Jason P 

Intro
e|------------------------------| 
B|------------------------------|
G|--5--5----5-5/4\5--5--5-------|
D|--5--5----5-5/4\5--5--5-------|
A|--3--3----3-3/2\3--3--3-------|
E|------------------------------|

Verse (* means play 8 times)
e|----------------------------|
B|----------------------------|
G|----5*---6*-----------------|
D|----5*---6*---6*-6/5\6-6*---|
A|----3*---4*---6*-6/5\6-6*---|
E|--------------4*-4/3\4-4*---|

Chorus (* still means play 8 times)

Part 1 ("tell me why, you want to be blind....")
e|----------------------------| 
B|----------------------------|
G|----8*---6*-----------------|
D|----8*---6*---6*-6/5\6-6*---|
A|----6*---4*---6*-6/5\6-6*---|
E|--------------4*-4/3\4-4*---|

Part 2 ("I know now, everyday.")
e|-------------| 
B|-------------|
G|----8*---6*--|
D|----8*---6*--|
A|----6*---4*--|
E|-------------|

Part 3 ("I get closer to the place inside...")
e|-------------------------| 
B|-------------------------|
G|-------------------------|
D|----6*---8*---10*--11*---|
A|----6*---8*---10*--11*---|
E|----4*---6*---8*---9*----|
                               

JASON'S EVERCLEAR TABS - http://members.tripod.com/~panec/