"One Hit Wonder" (Bass)
As Recorded by Everclear on "So Much For The Afterglow"
Tabbed By Ashton Bailey (ashton_bailey@hotmail.com), 
Lauren Ciechanowski (trggrhppyjack@aol.com) and Patrick McFadden (FredDust207@cs.com)

VERSION 1 - Tabbed by Ashton Bailey

Key:
pm = palm mute
\ = slide up towards the neck
/ = slide down towards the body
fb = feedback
h = hammer
b = bend string
r = ring (let string ring)

   Intro (Guitar & Drums only)

   Main Verse
G|-----------------------------------|
D|-----------------------------------|
A|-----------------------------------|
E|--9-9-9-9-9-9-9-9-2-2-2-2-2-2-2-2--|
           Db              F#

First you play the main verse, then you play variation 1,
then you play the main verse again, then you play variation 2

   Main Riff Variation 1
G|-----------------------------------|
D|-----------------------------------|
A|-----------------------------------|
E|--4-4-4-4-2-2-2-2-9-9-9-9-9-9-9-9--|
       Ab      F#          Db

   Main Riff Variation 2
G|-----------------------------------|
D|-----------------------------------|
A|-----------------------------------|
E|--7-7-7-7-4-4-4-4-2-2-2-2-X-X-X-X--|

   Bridge
G|-------------------|
D|-------------------|
A|-------------------| Repeat 4 times
E|--9-9-9-9-9-9-9-9--| The back to Main riff & Variations
          Db

  Outro
G|-------------------|
D|-------------------|
A|-------------------| Repeat a few times then
E|--9-9-9-9-9-9-9-9--| go to the outro riff
          Db

  Outro Riff
G|--9-9-9-9-9-9-9-13~--|
D|---------------------| Repeat & Fade
A|---------------------|
E|---------------------|

That should be everything

VERSION 2 - Tabbed by Lauren Ciechanowski

VERSE 1:
 Loopy says he likes it up on top
 Yes he knows if he ever lets go the pretty machine will swallow him whole
G|----------------------------------------| (2x)
D|----------------------------------------| 
A|-2h4-4-4-4-4-4-4-4-4--------------------| 
E|---------------------2-2-2-2-2-2-2-2-2-2|

 He has no fear he has no sense of shame
G|------------------------------------------| 
D|------------------------------------------| 
A|-----------------------2h4-4-4-4-4-4-4-4-4| 
E|-2h4-4-4-4-4-2-2-2-2-2--------------------|

 He will not stop until everybody everywhere wants to know his name
G|------------------------------------| 
D|------------------------------------| 
A|-----------------------2h4-4-4-4-4-4| 
E|-2h4-4-4-4-4-2-2-2-2-2--------------|

VERSE 2:
 The one hit wonder he like the big time
 He says he wants to live the kind of life that will make the folks 
back home all bitch and whine
G|------------------------------------------| (2x)
D|------------------------------------------| 
A|-2h4-4-4-4-4-4-4-4-4-4--------------------| 
E|-----------------------2-2-2-2-2-2-2-2-2-2|

 He knows if he every even gets the chance he'd sell his soul to make the monster dance 
G|--------------------------------------------| 
D|--------------------------------------------| 
A|-----------------------2h4-4-4-4-4-2-2-2-2-2| 
E|-2h4-4-4-4-4-2-2-2-2-2----------------------|

 They can't hurt you unless you let them
G|--------------------------------| 
D|--------------------------------| 
A|-----------0-0-0-0-0-4-4-4-4-4-4| 
E|-2-2-2-2-2----------------------|

FILL 1:
G|------------| 
D|------------| 
A|-----2------| 
E|-2h4---4p2-0|

VERSE 3:	
 Loopy says he sure does like the good life
 Yes he knows all those women who scheme are just pretty pictures in the pretty machine
G|------------------------------------------| (2x)
D|------------------------------------------| 
A|-2h4-4-4-4-4-4-4-4-4-4--------------------| 
E|-----------------------2-2-2-2-2-2-2-2-2-2|

 He knows if he ever even gets to try he'll bite down hard to make the monster cry
G|--------------------------------------------| 
D|--------------------------------------------| 
A|-----------------------2h4-4-4-4-4-2-2-2-2-2| 
E|-2h4-4-4-4-4-2-2-2-2-2----------------------|

 He knows if he ever even gets the chance he'd sell his soul to make the monster dance
G|--------------------------------------------| 
D|--------------------------------------------| 
A|-----------0-0-0-0-0-4-4-4-4-4-4-2-2-2-2-2-2| 
E|-2-2-2-2-2----------------------------------|

 They can't hurt you unless you let them
G|--------------------------------| 
D|--------------------------------| 
A|-----------0-0-0-0-0-4-4-4-4-4-4| 
E|-2-2-2-2-2----------------------|

(I will say it again) They cannot hurt you unless you let them
G|----------------------| 
D|----------------------| 
A|-----------0-0-0-0-0-4| 
E|-2-2-2-2-2------------|

FILL 2:
G|------(2x)|---------------|
D|-------1--|---------------|
A|---2-4---4|-2h4-2---------|
E|-4--------|-------2h4-2-0-|

VERSE 4:
 Loopy says he likes it up on top
 He prays to God and he hopes like hell that the pretty machine, they will never fail
G|------------------------------------------| (2x)
D|------------------------------------------| 
A|-2h4-4-4-4-4-4-4-4-4-4--------------------| 
E|-----------------------2-2-2-2-2-2-2-2-2-2|

 He has no fear he doesn't really even have the time
G|------------------------------------------| 
D|------------------------------------------| 
A|-----------------------2h4-4-4-4-4-4-4-4-4| 
E|-2h4-4-4-4-4-2-2-2-2-2--------------------|

 He knows that the world is in love with the pretty machine (oh yeah, the pretty machine)
G|------------------------------------| 
D|------------------------------------| 
A|-----------------------2h4-4-4-4-4-4| 
E|-2h4-4-4-4-4-2-2-2-2-2--------------|

VERSE 5:
 The one hit wonder he likes the big time
 He says he wants to live the kind of life that will make the folks back home scream bitch and whine
G|------------------------------------------| (2x)
D|------------------------------------------| 
A|-2h4-4-4-4-4-4-4-4-4-4--------------------| 
E|-----------------------2-2-2-2-2-2-2-2-2-2|

 He knows if he ever even gets to try he'll bite down hard to make the monster cry
G|--------------------------------------------| 
D|--------------------------------------------| 
A|-----------------------2h4-4-4-4-4-2-2-2-2-2| 
E|-2h4-4-4-4-4-2-2-2-2-2----------------------|

 He knows if he ever even gets the chance he'd sell his soul to make the monster dance
 He knows if he ever even gets to play he'd stomp like God to make the monster say
 They can't hurt you unless you let them (2x)
G|--------------------------------------------| (4x)
D|--------------------------------------------| 
A|-----------0-0-0-0-0-4-4-4-4-4-4-2-2-2-2-2-2| 
E|-2-2-2-2-2----------------------------------|

 They can't hurt you unless you let them...
G|--------------------------------------------| (3x)
D|--------------------------------------------| 
A|-----------0-0-0-0-0-4-4-4-4-4-4-4-4-4-4-4-4| 
E|-2-2-2-2-2----------------------------------|

 They cannot hurt you unless you let them
G|----------------------| 
D|----------------------| 
A|-----------0-0-0-0-0-4| 
E|-2-2-2-2-2------------|

OUTRO:
G|-4--------------|(10x) 
D|---3-3-3-3-3-3-3| 
A|----------------| 
E|----------------|

VERSION 3 - Corrections by Patrick McFadden to the above tab by Lauren Ciechanowski

VERSE 1
G|---------------------------------------| (2x)
D|---------------------------------------| 
A|---------------------------------------| 
E|-7h9-9-9-9-9-9-9-9-2-2-2-2-2-2-2-2-2-2-|
 
G|-------------------------------------| 
D|-------------------------------------| 
A|-------------------------------------| 
E|-2h4-4-4-4-2-2-2-2-7h9-9-9-9-9-9-9-9-|

G|------------------------------| 
D|------------------------------| 
A|------------------------------| 
E|-2h4-4-4-4-2-2-2-2-7h9-9-9-9--|

VERSE 2:
G|---------------------------------------| (2x)
D|---------------------------------------| 
A|---------------------------------------| 
E|-7h9-9-9-9-9-9-9-9-2-2-2-2-2-2-2-2-2-2-|

 He knows if he every even gets the chance he'd sell his soul to make the monster dance 
G|-------------------------------------| 
D|-------------------------------------| 
A|-------------------------------------| 
E|-2h4-4-4-4-2-2-2-2-7h9-9-9-9-7-7-7-7-|

 They can't hurt you unless you let them
G|----------------------------| 
D|----------------------------| 
A|----------------------------| 
E|-2-2-2-2-2-5-5-5-5-9-9-9-9--|

FILL 1:
G|------------| 
D|------------| 
A|-----2------| 
E|-2h4---4p2-0|

VERSE 3:	
G|---------------------------------------| (2x)
D|---------------------------------------| 
A|---------------------------------------| 
E|-7h9-9-9-9-9-9-9-9-2-2-2-2-2-2-2-2-2-2-|

 He knows if he ever even gets to try he'll bite down hard to make the monster cry
G|-------------------------------------| 
D|-------------------------------------| 
A|-------------------------------------| 
E|-2h4-4-4-4-2-2-2-2-7h9-9-9-9-7-7-7-7-|

 He knows if he ever even gets the chance he'd sell his soul to make the monster dance
G|-----------------------------------| 
D|-----------------------------------| 
A|-----------------------------------|
E|-2-2-2-2-2-5-5-5-5-9-9-9-9-7-7-7-7-|

 They can't hurt you unless you let them
G|----------------------------| 
D|----------------------------| 
A|----------------------------| 
E|-2-2-2-2-2-5-5-5-5-9-9-9-9--|

(I will say it again) They cannot hurt you unless you let them
G|-------------------| 
D|-------------------| 
A|-------------------| 
E|-2-2-2-2-5-5-5-5-9-|

FILL 2:
G|------(2x)|---------------|
D|-------1--|---------------|
A|---2-4---4|-2h4----------|
E|-4--------|-------2h4-2-0-|

VERSE 4:
G|---------------------------------------| (2x)
D|---------------------------------------| 
A|---------------------------------------| 
E|-7h9-9-9-9-9-9-9-9-2-2-2-2-2-2-2-2-2-2-|

G|-------------------------------------| 
D|-------------------------------------| 
A|-------------------------------------| 
E|-2h4-4-4-4-2-2-2-2-7h9-9-9-9-9-9-9-9-|

G|------------------------------| 
D|------------------------------| 
A|------------------------------| 
E|-2h4-4-4-4-2-2-2-2-7h9-9-9-9--|

VERSE 5:
G|---------------------------------------| (2x)
D|---------------------------------------| 
A|---------------------------------------| 
E|-7h9-9-9-9-9-9-9-9-2-2-2-2-2-2-2-2-2-2-|

 He knows if he ever even gets to try he'll bite down hard to make the monster cry
G|-------------------------------------| 
D|-------------------------------------| 
A|-------------------------------------| 
E|-2h4-4-4-4-2-2-2-2-7h9-9-9-9-7-7-7-7-|

 He knows if he ever even gets the chance he'd sell his soul to make the monster dance
 He knows if he ever even gets to play he'd stomp like God to make the monster say
 They can't hurt you unless you let them (2x)
G|-----------------------------------| 
D|-----------------------------------| 
A|-----------------------------------|
E|-2-2-2-2-2-5-5-5-5-9-9-9-9-7-7-7-7-|

 They can't hurt you unless you let them...
G|---------------------------------| (3x)
D|---------------------------------| 
A|---------------------------------| 
E|-2-2-2-2-5-5-5-5-9-9-9-9-9-9-9-9-|

 They cannot hurt you unless you let them
G|-------------------| 
D|-------------------| 
A|-------------------| 
E|-2-2-2-2-5-5-5-5-9-|

OUTRO:
G|-4--------------|(10x) 
D|---3-3-3-3-3-3-3| 
A|----------------| 
E|----------------|

JASON'S EVERCLEAR TABS - http://members.tripod.com/~panec/