Our Lips Are Sealed 
As recorded by Everclear on "Everything to Everyone" Australian Maxi-Single
Tabbed by Lauren Ciechanowski (trggrhppyjack@aol.com)

INTRO (w/slight distortion):

Guitar #1 (palm mute)
   E                                 
e|-----------------| 
B|-----------------|
G|-----------------|
D|-2-2-2-2-2-2-2-2-|
A|-2-2-2-2-2-2-2-2-|
E|-0-0-0-0-0-0-0-0-|

   E               D                A   
e|---------------------------------|------------(2x)| (2x)
B|---------------------------------|----------------| 
G|-----------------7-7-7-7-7-7-7-7-|----------------| 
D|-2-2-2-2-2-2-2-2-7-7-7-7-7-7-7-7-|7-7-7-7-7-7-7-7-| 
A|-2-2-2-2-2-2-2-2-5-5-5-5-5-5-5-5-|7-7-7-7-7-7-7-7-| 
E|-0-0-0-0-0-0-0-0-----------------|5-5-5-5-5-5-5-5-|

Guitar #2
	E			  D				 A
e|--12-------12-------12--10-------10-------10-|-5-----5-----5(2x)|(2x)
B|-----12-------12----------11--------11-------|---5-----5--------| 
G|--------13-------13----------11-------11-----|-----6-----6------| 
D|---------------------------------------------|------------------| 
A|---------------------------------------------|------------------| 
E|---------------------------------------------|------------------|

VERSE (palm mute 1st verse):
   E               D                A   
e|---------------------------------|------------(2x)| (2x)
B|---------------------------------|----------------| 
G|-----------------7-7-7-7-7-7-7-7-|----------------| 
D|-2-2-2-2-2-2-2-2-7-7-7-7-7-7-7-7-|7-7-7-7-7-7-7-7-| 
A|-2-2-2-2-2-2-2-2-5-5-5-5-5-5-5-5-|7-7-7-7-7-7-7-7-| 
E|-0-0-0-0-0-0-0-0-----------------|5-5-5-5-5-5-5-5-|

BRIDGE:
   C			 A               F  		   B
e|----------------------------------------------------------------| 
B|----------------------------------------------------------------| 
G|-5-5-5-5-5-5-5-5---------------------------------4-4-4-4-4-4-4-4| 
D|-5-5-5-5-5-5-5-5-7-7-7-7-7-7-7-7-3-3-3-3-3-3-3-3-4-4-4-4-4-4-4-4| 
A|-3-3-3-3-3-3-3-3-7-7-7-7-7-7-7-7-3-3-3-3-3-3-3-3-2-2-2-2-2-2-2-2| 
E|-----------------5-5-5-5-5-5-5-5-1-1-1-1-1-1-1-1----------------|

CHORUS (Guitar #2 play intro riff again):
   E			 A               E
e|------------------------------------------------| 
B|------------------------------------------------| 
G|------------------------------------------------| 
D|-2-2-2-2-2-2-2-2-7-7-7-7-7-7-7-7-2-2-2-2-2-2-2-2| 
A|-2-2-2-2-2-2-2-2-7-7-7-7-7-7-7-7-2-2-2-2-2-2-2-2| 
E|-0-0-0-0-0-0-0-0-5-5-5-5-5-5-5-5-0-0-0-0-0-0-0-0|

"hush my darling..."
e|-0---------| (2x)
B|-0---------| 
G|-1---------| 
D|-2---------| 
A|-2---------| 
E|-0---------|

JASON'S EVERCLEAR TABS - http://members.tripod.com/~panec/