Our Lips Are Sealed (bass)
As recorded by Everclear on "Everything to Everyone” EP 
Tabbed by Lauren Ciechanowski (trggrhppyjack@aol.com) 

INTRO:
G|-------------(2x)|--------------------------------------------(2x)|
D|-----------------|------------------------------------------------|
A|-----------------|----7--5-7----5--4-5----------------------------|
E|-0-0-0-0-0-0-0-0-|-0---------5---------5--5-5-5-5-5-5-3-3-2-2-1-1-|

VERSE:
G|-----------------------------------------------------------| 
D|-----------------------------------------------------------| 
A|-------7--5-7-------5--4-5---------------------------------| 
E|-0-0-0--------5-5-5--------5-5-5-5-5-5-5-5-5-5-3-3-2-2-1-1-|

“Doesn’t matter what they say...”
G|-----------------------------------------------------------| 
D|-----------------------------------------------------------| 
A|-3-3-3-3--5-3--------------1-1-1-1-1-1-1-1-2-2-2-2-2-2-2-2-| 
E|--------------3-3-3-3--5-3---------------------------------|

“Our lips are sealed.”
G|--------------------------------------|-------(2x)| 
D|--------------------------------------|-----------| 
A|--------------------------------------|-----------| 
E|-0-0-0-0-0-0-0-0-5-5-5-5-5-5-5-5-0-0-0|-0-0-0-0-0-|

VERSE:
G|-----------------------------------------------------------| 
D|-----------------------------------------------------------| 
A|-------7--5-7-------5--4-5---------------------------------| 
E|-0-0-0--------5-5-5--------5-5-5-5-5-5-5-5-5-5-3-3-2-2-1-1-|

“Doesn’t matter what they say...”
G|-----------------------------------------------------------| 
D|-----------------------------------------------------------| 
A|-3-3-3-3--5-3--------------1-1-1-1-1-1-1-1-2-2-2-2-2-2-2-2-| 
E|--------------3-3-3-3--5-3---------------------------------|

“Our lips are sealed.”
G|-------------------------------------------------| 
D|-------------------------------------------------| 
A|-------------------------------------------------| 
E|-0-0-0-0-0-0-0-0-5-5-5-5-5-5-5-5-0-0-0-0-0-0-0-0-|

“Pay no mind to what they say...”
G|-----------------------------------------------------| 
D|-----------------------------------------------------| 
A|-3-3-3-3--5-3--------------1-1-1-1-1-1-1-1-2-2-2-2-2-| 
E|--------------3-3-3-3--5-3---------------------------|


“Our lips are sealed.”
G|-------------------------------------------------| 
D|-------------------------------------------------| 
A|-------------------------------------------------| 
E|-0-0-0-0-0-0-0-0-5-5-5-5-5-5-5-5-0-0-0-0-0-0-0-0-|

“Hush my darling...”
G|---------------------(5x)|---------------| 
D|-------------------------|---------------| 
A|---7-6-7-6-----7-6-7-6---|---7-6-7-6-----|
E|-0---------7-0---------7-|-0---------7-0-|

VERSE:
G|-----------------------------------------------------------|(2x) 
D|-----------------------------------------------------------| 
A|-------7--5-7-------5--4-5---------------------------------| 
E|-0-0-0--------5-5-5--------5-5-5-5-5-5-5-5-5-5-3-3-2-2-1-1-|

“Doesn’t matter what they say...”
G|-----------------------------------------------------------| 
D|-----------------------------------------------------------| 
A|-3-3-3-3--5-3--------------1-1-1-1-1-1-1-1-2-2-2-2-2-2-2-2-| 
E|--------------3-3-3-3--5-3---------------------------------|

“Our lips are sealed.”
G|-------------------------------------------------| 
D|-------------------------------------------------| 
A|-------------------------------------------------| 
E|-0-0-0-0-0-0-0-0-5-5-5-5-5-5-5-5-0-0-0-0-0-0-0-0-|

“Pay no mind to what they say...”
G|-----------------------------------------------------| 
D|-----------------------------------------------------| 
A|-3-3-3-3--5-3--------------1-1-1-1-1-1-1-1-2-2-2-2-2-| 
E|--------------3-3-3-3--5-3---------------------------|

“Our lips are sealed.”
G|-----------------------------(3x)|---| 
D|---------------------------------|---| 
A|---------------------------------|---| 
E|-0-0-0-0-0-0-0-0-5-5-5-5-5-5-5-5-|-0-|

JASON'S EVERCLEAR TABS - http://members.tripod.com/~panec/