Out Of My Depth 
As recorded by Everclear on "SFAAM #2: Good Time for A Bad Attitude"
Tabbed by Jason P (jasonsevercleartabs@hotmail.com) and Hugh Yik (hyik@nb.sympatico.ca)

VERSION 1 - Tabbed by Jason P

    B
e|--2-2-2-2-2-2-2-2--| x4
B|--4-4-4-4-4-4-4-4--|
G|--4-4-4-4-4-4-4-4--|
D|--4-4-4-4-4-4-4-4--|
A|--2-2-2-2-2-2-2-2--|
E|-------------------|
 |                   |
e|----------2--------|
B|-------------------|
G|------4-----4---4--|
D|----4---4-----4----|
A|--2----------------|
E|-------------------|

   B               A#              E               F#
e|-2-2-2-2-2-2-2-2-1-1-1-1-1-1-1-1-0-0-0-0-0-0-0-0-2-2-2-2-2-2-2-2-| 
B|-4-4-4-4-4-4-4-4-3-3-3-3-3-3-3-3-0-0-0-0-0-0-0-0-2-2-2-2-2-2-2-2-|
G|-4-4-4-4-4-4-4-4-3-3-3-3-3-3-3-3-1-1-1-1-1-1-1-1-3-3-3-3-3-3-3-3-|
D|-4-4-4-4-4-4-4-4-3-3-3-3-3-3-3-3-2-2-2-2-2-2-2-2-4-4-4-4-4-4-4-4-|
A|-2-2-2-2-2-2-2-2-1-1-1-1-1-1-1-1-2-2-2-2-2-2-2-2-4-4-4-4-4-4-4-4-|
E|---------------------------------0-0-0-0-0-0-0-0-2-2-2-2-2-2-2-2-|
 |                                                                 |
e|---------2---------------1---------------0---------------2-------|
B|-----------------------------------------------------------------|
G|-----4-----4---4-----3-----3---3-----1-----1---1-----3-----3---3-|
D|---4---4-----4-----3---3-----3-----2---2-----2-----4---4-----4---|
A|-2---------------1-----------------------------------------------|
E|---------------------------------0---------------2---------------|
Out of my depth, lost in the air. Falling faster like a broken elevator.

   B               A#              E               F#
e|-2-2-2-2-2-2-2-2-1-1-1-1-1-1-1-1-0-0-0-0-0-0-0-0-2-2-2-2-2-x-----| 
B|-4-4-4-4-4-4-4-4-3-3-3-3-3-3-3-3-0-0-0-0-0-0-0-0-2-2-2-2-2-x-----|
G|-4-4-4-4-4-4-4-4-3-3-3-3-3-3-3-3-1-1-1-1-1-1-1-1-3-3-3-3-3-x-----|
D|-4-4-4-4-4-4-4-4-3-3-3-3-3-3-3-3-2-2-2-2-2-2-2-2-4-4-4-4-4-x-----|
A|-2-2-2-2-2-2-2-2-1-1-1-1-1-1-1-1-2-2-2-2-2-2-2-2-4-4-4-4-4-x-----|
E|---------------------------------0-0-0-0-0-0-0-0-2-2-2-2-2-x-----|
 |                                                                 |
e|---------2---------------1---------------0---------------2-------|
B|-----------------------------------------------------------------|
G|-----4-----4---4-----3-----3---3-----1-----1---1-----3-----------|
D|---4---4-----4-----3---3-----3-----2---2-----2-----4---4---------|
A|-2---------------1-----------------------------------------------|
E|---------------------------------0---------------2---------------| 
Out of my depth, lost in the dark waiting for the other shoe to come down hard.

   B               A#              E               F#
e|-2-2-2-2-2-2-2-2-1-1-1-1-1-1-1-1-0-0-0-0-0-0-0-0-2-2-2-2-2-2-2-2-| x2
B|-4-4-4-4-4-4-4-4-3-3-3-3-3-3-3-3-0-0-0-0-0-0-0-0-2-2-2-2-2-2-2-2-|
G|-4-4-4-4-4-4-4-4-3-3-3-3-3-3-3-3-1-1-1-1-1-1-1-1-3-3-3-3-3-3-3-3-|
D|-4-4-4-4-4-4-4-4-3-3-3-3-3-3-3-3-2-2-2-2-2-2-2-2-4-4-4-4-4-4-4-4-|
A|-2-2-2-2-2-2-2-2-1-1-1-1-1-1-1-1-2-2-2-2-2-2-2-2-4-4-4-4-4-4-4-4-|
E|---------------------------------0-0-0-0-0-0-0-0-2-2-2-2-2-2-2-2-|
 |                                                                 |
e|---------2---------------1---------------0---------------2-------|
B|-----------------------------------------------------------------|
G|-----4-----4---4-----3-----3---3-----1-----1---1-----3-----3---3-|
D|---4---4-----4-----3---3-----3-----2---2-----2-----4---4-----4---|
A|-2---------------1-----------------------------------------------|
E|---------------------------------0---------------2---------------|
I cannot communicate like I wish I could. I do not deal with my problems like
I know I should. I am out of my depth, I am out of my league. Watching 
everything… just slip away from me.

   G#              C#              E               B       F#    G
e|-----------------------------------------------------------------| 
B|-----------------6-6-6-6-6-6-6-6-9-9-9-9-9-9-9-9-4-4-4-4---------|
G|-5-5-5-5-5-5-5-5-6-6-6-6-6-6-6-6-9-9-9-9-9-9-9-9-4-4-4-4-3-3-3-4-|
D|-6-6-6-6-6-6-6-6-6-6-6-6-6-6-6-6-9-9-9-9-9-9-9-9-4-4-4-4-4-4-4-5-|
A|-6-6-6-6-6-6-6-6-4-4-4-4-4-4-4-4-7-7-7-7-7-7-7-7-2-2-2-2-4-4-4-5-|
E|-4-4-4-4-4-4-4-4-----------------------------------------2-2-2-3-|
 |                                                                 |
e|---------4---------------4---------------7-----------------------|
B|-----------------------------------------------------------------|
G|-----5-----5---5-----6-----6---6-----9-----9---9-----------------|
D|---6---6-----6-----6---6-----6-----9---9-----9-------------------|
A|-----------------4---------------7-------------------------------|
E|-4---------------------------------------------------------------|
Something bad is going to happen, I can feel it deep inside. 
There are shadows all around me like a bad moon on the rise. 

   G#   C# E       B       F#    G
e|---------------------------------| x4
B|-------6-9-9-9-x-4-4-4-4---------|
G|-5-5-x-6-9-9-9-x-4-4-4-4-3-3-3-4-|
D|-6-6-x-6-9-9-9-x-4-4-4-4-4-4-4-5-|
A|-6-6-x-4-7-7-7-x-2-2-2-2-4-4-4-5-|
E|-4-4-x-------------------2-2-2-3-|
I am in over my head. 
I am in too deep here, over my head. 
I guess I should keep my opinions to myself.
I guess I am out of my depth. 

   B               A#              E               F#
e|-2-2-2-2-2-2-2-2-1-1-1-1-1-1-1-1-0-0-0-0-0-0-0-0-2-2-2-2-2-2-2-2-| 
B|-4-4-4-4-4-4-4-4-3-3-3-3-3-3-3-3-0-0-0-0-0-0-0-0-2-2-2-2-2-2-2-2-|
G|-4-4-4-4-4-4-4-4-3-3-3-3-3-3-3-3-1-1-1-1-1-1-1-1-3-3-3-3-3-3-3-3-|
D|-4-4-4-4-4-4-4-4-3-3-3-3-3-3-3-3-2-2-2-2-2-2-2-2-4-4-4-4-4-4-4-4-|
A|-2-2-2-2-2-2-2-2-1-1-1-1-1-1-1-1-2-2-2-2-2-2-2-2-4-4-4-4-4-4-4-4-|
E|---------------------------------0-0-0-0-0-0-0-0-2-2-2-2-2-2-2-2-|
 |                                                                 |
e|---------2---------------1---------------0---------------2-------|
B|-----------------------------------------------------------------|
G|-----4-----4---4-----3-----3---3-----1-----1---1-----3-----3---3-|
D|---4---4-----4-----3---3-----3-----2---2-----2-----4---4-----4---|
A|-2---------------1-----------------------------------------------|
E|---------------------------------0---------------2---------------|
Out of my depth, right from the start. 
I feel like I was born with an invisible heart.

   B               A#              E               F#
e|-2-2-2-2-2-2-2-2-1-1-1-1-1-1-1-1-0-0-0-0-0-0-0-0-2-2-2-2-2-x-----| 
B|-4-4-4-4-4-4-4-4-3-3-3-3-3-3-3-3-0-0-0-0-0-0-0-0-2-2-2-2-2-x-----|
G|-4-4-4-4-4-4-4-4-3-3-3-3-3-3-3-3-1-1-1-1-1-1-1-1-3-3-3-3-3-x-----|
D|-4-4-4-4-4-4-4-4-3-3-3-3-3-3-3-3-2-2-2-2-2-2-2-2-4-4-4-4-4-x-----|
A|-2-2-2-2-2-2-2-2-1-1-1-1-1-1-1-1-2-2-2-2-2-2-2-2-4-4-4-4-4-x-----|
E|---------------------------------0-0-0-0-0-0-0-0-2-2-2-2-2-x-----|
 |                                                                 |
e|---------2---------------1---------------0---------------2-------|
B|-----------------------------------------------------------------|
G|-----4-----4---4-----3-----3---3-----1-----1---1-----3-----------|
D|---4---4-----4-----3---3-----3-----2---2-----2-----4---4---------|
A|-2---------------1-----------------------------------------------|
E|---------------------------------0---------------2---------------| 
Out of my depth, seems like everyday. 
I can’t find the words to make the good things come my way. 

   B               A#              E               F#
e|-2-2-2-2-2-2-2-2-1-1-1-1-1-1-1-1-0-0-0-0-0-0-0-0-2-2-2-2-2-2-2-2-|  x2
B|-4-4-4-4-4-4-4-4-3-3-3-3-3-3-3-3-0-0-0-0-0-0-0-0-2-2-2-2-2-2-2-2-|
G|-4-4-4-4-4-4-4-4-3-3-3-3-3-3-3-3-1-1-1-1-1-1-1-1-3-3-3-3-3-3-3-3-|
D|-4-4-4-4-4-4-4-4-3-3-3-3-3-3-3-3-2-2-2-2-2-2-2-2-4-4-4-4-4-4-4-4-|
A|-2-2-2-2-2-2-2-2-1-1-1-1-1-1-1-1-2-2-2-2-2-2-2-2-4-4-4-4-4-4-4-4-|
E|---------------------------------0-0-0-0-0-0-0-0-2-2-2-2-2-2-2-2-|
 |                                                                 |
e|---------2---------------1---------------0---------------2-------|
B|-----------------------------------------------------------------|
G|-----4-----4---4-----3-----3---3-----1-----1---1-----3-----3---3-|
D|---4---4-----4-----3---3-----3-----2---2-----2-----4---4-----4---|
A|-2---------------1-----------------------------------------------|
E|---------------------------------0---------------2---------------|
I feel like I am faking it, I feel like I am wrong. 
I feel like I’m a guest… like I just do not belong. 
I am out of my depth every single day.
I just cannot find the words to make my monsters go away. 

   G#              C#              E               B       F#
e|-----------------------------------------------------------------| 
B|-----------------6-6-6-6-6-6-6-6-9-9-9-9-9-9-9-9-4-4-4-4---------|
G|-5-5-5-5-5-5-5-5-6-6-6-6-6-6-6-6-9-9-9-9-9-9-9-9-4-4-4-4-3-3-3-3-|
D|-6-6-6-6-6-6-6-6-6-6-6-6-6-6-6-6-9-9-9-9-9-9-9-9-4-4-4-4-4-4-4-4-|
A|-6-6-6-6-6-6-6-6-4-4-4-4-4-4-4-4-7-7-7-7-7-7-7-7-2-2-2-2-4-4-4-4-|
E|-4-4-4-4-4-4-4-4-----------------------------------------2-2-2-2-|
 |                                                                 |
e|---------4---------------4---------------7-----------------------|
B|-----------------------------------------------------------------|
G|-----5-----5---5-----6-----6---6-----9-----9---9-----------------|
D|---6---6-----6-----6---6-----6-----9---9-----9-------------------|
A|-----------------4---------------7-------------------------------|
E|-4---------------------------------------------------------------|
Something bad is going to happen, I can feel it deep inside. 
There are shadows all around me like a bad moon on the rise. 

   G#   C# E       B       F#    G
e|---------------------------------| x3
B|-------6-9-9-9-x-4-4-4-4---------|
G|-5-5-x-6-9-9-9-x-4-4-4-4-3-3-3-4-|
D|-6-6-x-6-9-9-9-x-4-4-4-4-4-4-4-5-|
A|-6-6-x-4-7-7-7-x-2-2-2-2-4-4-4-5-|
E|-4-4-x-------------------2-2-2-3-|
I am in too deep here, over my head. 
I am in too deep here, over my head. 
I should seek some professional help

   G#   C# E       
e|-----------------| x4
B|-------6-9-9-9-9-|
G|-5-5-x-6-9-9-9-9-|
D|-6-6-x-6-9-9-9-9-|
A|-6-6-x-4-7-7-7-7-|
E|-4-4-x-----------| 
because I’m out of my depth. 
Yes, I’m out of my depth and I am slowly going out of my mind. 

e|---------2---------------1---------------0---------------2-------|
B|-----------------------------------------------------------------|
G|-----4-----4---4-----3-----3---3-----1-----1---1-----3-----3---3-|
D|---4---4-----4-----3---3-----3-----2---2-----2-----4---4-----4---|
A|-2---------------1-----------------------------------------------|
E|---------------------------------0---------------2---------------|

e|---------2---------------1---------------0---------------2-------|
B|-----------------------------------------------------------------|
G|-----4-----4---4-----3-----3---3-----1-----1---1-----3-----------|
D|---4---4-----4-----3---3-----3-----2---2-----2-----4---4---------|
A|-2---------------1-----------------------------------------------|
E|---------------------------------0---------------2---------------| 
             Ahhhhhh  Ahhhhh

   G#              C#              E               B       F#    G
e|-4---------------4---------------7---------------2-------2-------| x2
B|-4---------------6---------------9---------------4-------2-------|
G|-5---------------6---------------9---------------4-------3-----4-|
D|-6---------------6---------------9---------------4-------4-----5-|
A|-6---------------4---------------7---------------2-------4-----5-|
E|-4-------------------------------------------------------2-----3-|
Oh, go away. Make them go away. Someday I know I will make them go away.
Make them go away. Make them go away. Someday I know… I will make my monsters go away. 

   G#   C# E       B       F#    G
e|---------------------------------| x4
B|-------6-9-9-9-x-4-4-4-4---------|
G|-5-5-x-6-9-9-9-x-4-4-4-4-3-3-3-4-|
D|-6-6-x-6-9-9-9-x-4-4-4-4-4-4-4-5-|
A|-6-6-x-4-7-7-7-x-2-2-2-2-4-4-4-5-|
E|-4-4-x-------------------2-2-2-3-|
I am in over my head. 
I should seek some professional help. 
I should keep my opinions to myself. 
I guess I am out of my depth.

   G#   C# E       
e|-----------------| x4
B|-------6-9-9-9---|
G|-5-5---6-9-9-9---|
D|-6-6---6-9-9-9---|
A|-6-6---4-7-7-7---|
E|-4-4-------------| 
 I am out of my depth.
 Yeah, I am out of my depth
 I am out of my depth
 I'm out of my... go!	

(solo over above riff. This is probably mostly wrong, but... )
e|-----------------------------------------------------|
B|-4-4-4p2p0---0-4-4-4-4p2p0---0-4-4-4p2p0---0-2-0---0-|
G|-----------1---------------1-------------1-------1---|
D|-----------------------------------------------------|
A|-----------------------------------------------------|
E|-----------------------------------------------------|

e|------9----9-11--/11-11-11-11-11-11-11-11---|
B|-9-12---12-----------------12-12-12-12-12---|
G|--------------------------------------------|
D|--------------------------------------------|
A|--------------------------------------------|
E|--------------------------------------------|

e|-16-16-16-16--14-14-14-14-------------------------------------------|
B|-16-16-16-16--14-14-14-14-------------------------------------------|
G|--------------------------13-13b-13p11-13b14r13p11------------------|
D|--------------------------------------------------13-11----13-13b15-|
A|--------------------------------------------------------14----------|
E|--------------------------------------------------------------------|

   G#   C# E       
e|-----------------| x8
B|-------6-9-9-9---|
G|-5-5---6-9-9-9---|
D|-6-6---6-9-9-9---|
A|-6-6---4-7-7-7---|
E|-4-4-------------| 
 I am out of my depth.
 I am out of my depth
 I am out of my depth
 I am out of my depth.
 I am out of my depth
 I am out of my depth
 Yes, I am slowly going out of my mind.

(This last bit is easiest with a capo on the 2nd fret)
   Esus2           B   B/C#        Esus2 F#5       B     B/C#
e|-2-2-2-2-2-2-2-2-----------------2-2-2-2-2-2-2-2---------|
B|-5-5-5-5-5-5-5-5-4-4-4-4-4-4-4-4-5-5-5-5-5-5-5-5-4-4-4-4-|
G|-4-4-4-4-4-4-4-4-4-4-4-4-4-4-4-4-4-4-4h6-4-4-4h6-4-4-4-4-|
D|-2-2-2-2-2-2-2-2-4-4-4-4-4-4-4-4-2-2-2-2-2-2-2-2-4-4-4-4-|
A|-----------------2-2-2h4-2-2-2h4-----------------2-2-2-4-|
E|---------------------------------------------------------|

VERSION 2 - Tabbed by Hugh Yik


**Detune 1/2 step to "Eb"**

Intro 
--Just a "B" strumed (ie - strum a C-shape chord - Jason) 

Verse Riff
     B               Bb7             E               Gb
eb|--0-0-0-0-0-0-0-0-2-2-2-2-2-2-2-2-1-1-1-1-1-1-1-1-3-3-3-3-3-3-3-3-|
Bb|--1-1-1-1-1-1-1-1-0-0-0-0-0-0-0-0-1-1-1-1-1-1-1-1-3-3-3-3-3-3-3-3-|
Gb|--0-0-0-0-0-0-0-0-2-2-2-2-2-2-2-2-2-2-2-2-2-2-2-2-0-0-0-0-0-0-0-0-|
Db|--2-2-2-2-2-2-2-2-1-1-1-1-1-1-1-1-3-3-3-3-3-3-3-3-0-0-0-0-0-0-0-0-|
Ab|--3-3-3-3-3-3-3-3-2-2-2-2-2-2-2-2-3-3-3-3-3-3-3-3-2-2-2-2-2-2-2-2-|
Eb|----------------------------------1-1-1-1-1-1-1-1-3-3-3-3-3-3-3-3-|
  |                                                                  |
  |----------3---------------2---------------1---------------3-------|
  |------1-----1---1-----0-----0---0---------------------3-----3---3-|
  |----0---0-----0-----2---2-----2-------2-----2---2---0---0-----0---|
  |------------------------------------3---3-----3-------------------|
  |--3---------------2-----------------------------------------------|
  |----------------------------------1---------------3---------------|

Pre-Chorus Riff("Something bad is going to happen......")
   G#              C#              E                       B      Gb      G
|----------------------------------------------------------------------------|
|----------------------------------------------------------------------------|
|------------------7-7-7-7-7-7-7-7-10-10-10-10-10-10-10-10-5-5-5-5-----------|
|--7-7-7-7-7-7-7-7-7-7-7-7-7-7-7-7-10-10-10-10-10-10-10-10-5-5-5-5-5-5-5--6--|
|--7-7-7-7-7-7-7-7-5-5-5-5-5-5-5-5-8--8--8--8--8--8--8--8--3-3-3-3-5-5-5--6--|
|--5-5-5-5-5-5-5-5-------------------------------------------------3-3-3--4--|

Chorus Riff Part 1("I am in over my head.....")("I'm Out of my depth...")
   G#      C#  E      | B      Gb    G
|---------------------|------------------|
|---------------------|------------------| 
|----------7-x-10-10-x|-5-5-5-5----------|  
|--7-7-x-x-7-x-10-10-x|-5-5-5-5-5-5-5-6--|  
|--7-7-x-x-5-x-8--8--x|-3-3-3-3-5-5-5-6--|
|--5-5-x-x------------|---------3-3-3-4--| 
                      |

Solo ???? 


Outro Riff
   Esus           Bmaj
|--x--x--x--x--x--x--x--x--x--x--|
|--8--8--8--8--8--x--x--x--x--x--|
|--10-10-10-10-10-9--9--9--9--9--|
|--10-10-10-10-10-10-10-10-10-10-|
|--8--8--8--8--8--10-10-10-10-10-|
|--x--x--x--x--x--8--8--8--8--8--|

JASON'S EVERCLEAR TABS - http://members.tripod.com/~panec/