"Overwhelming" (Bass)
As recorded by Everclear on "Songs From An American Movie Volume Two,
A Good Time For A Bad Attitude"
Tabbed by Ashton Bailey (ashton_bailey@hotmail.com), Jason P (jasonsevercleartabs@hotmail.com) and Will Donovan (everclear792@msn.com) 

VERSION 1 - tabbed by Ashton Bailey and Jason P

Key:
pm = palm mute
\ = slide up towards the neck
/ = slide down towards the body
fb = feedback
h = hammer
b = bend string
r = ring (let string ring)

Tuning Regular for the original (ie Art's Solo version), and a half step down if you want to play 
along with the new version, but it still sounds close in regular. I will be 
tabbing it in regular tuning.

   Intro - Guitar Only

   Main Verse
G|------------------------------|
D|------------------------------|
A|--3----3-------7----6-5----4--| Repeat
E|---------3---3----------------|
      C      G   E   Eb D    Db

   Break "I don't wanna be your punching bag"
G|------------------------------------------|
D|------------------------------------------|
A|--3-------------------5-------------------|
E|------------------------------------------|
    C                   D

   "Your complaisant little princess all tragic and sad"
G|------------------------------------------|
D|------------------------------------------|
A|--7----------------3----------------------|
E|------------------------------------------|
    E                C

   "I'm not gonna let you overwhelm me anymore"
G|------------------------------------------|
D|------------------------------------------|
A|--3-------------------5-------------------|
E|------------------------------------------|
    C                   D

   Main Verse
G|------------------------------|
D|------------------------------|
A|--3----3-------7----6-5----4--| Repeat
E|---------3---3----------------|
      C      G   E   Eb D    Db


   Bridge "I swear your time is gonna come..."
G|-----------------------------|
D|-----------------------------|
A|--3---------7-7-7-6-5-5-5-4--|
E|-----------------------------|
    C           E   Eb  D  Db

   Pre-Chorus "Oh I don't wanna be your whipping boy, Your pathetic little 
loser..."
G|-------------------------------------------------------------------|
D|-------------------------------------------------------------------|
A|--3-3-3-3-3-3-3-3-----------------5-5-5-5-5-5-5-5-7-7-7-7-7-7-7-7--|
E|------------------3-3-3-3-3-3-3-3----------------------------------|
           C               G               D               E

   "I'm not gonna let you overwhelm me anymore"
G|-----------------------------------|
D|-----------------------------------|
A|--3-3-3-3-3-3-3-3-5-5-5-5-5-5-5-5--|
E|-----------------------------------|
           C              D

   Chorus "I'm not gonna let you..."
G|----------------------------------------------------|
D|----------------------------------------------------|
A|--3--3----------------------5--5--------7--7--6--5--| Repeat
E|---------------3--3---------------------------------|
      C           G            D            E   D# D

   "I will not let you overwhelm me anymore"
G|----------------------------------------------------|
D|----------------------------------------------------|
A|--3--3----------------------5--5--5--6--7--7--6--5--|
E|---------------3--3---------------------------------|
     C            G              D     D#  E    D# D

   "I will not let you overwhelm me anymore"
G|--------------------------------------------------|
D|--------------------------------------------------|
A|--3--3--x--x--------------5--5--5--6--7--7--6--5--|
E|--------------3--3--x--x--------------------------|


   Interlude "It can come from out of nowhere...."
G|-----------------------------------|
D|-----------------------------------|
A|--3-3-3-3-3-3-3-3-3-3-3-3-3-3-3-3--|
E|-----------------------------------|
                   C

   "Oh I don't wanna be your simple saving grace"
G|----------------------------------|
D|----------------------------------|
A|--3-3-3-3-3-3-3-3-5-5-5-5-5-5-5-5-|
E|----------------------------------|
           C               D

   "Just another little victim with a happy face"
G|-----------------------------------|
D|-----------------------------------|
A|--7-7-7-7-7-7-7-7------------------|
E|------------------3-3-3-3-3-3-3-3--|
           E               G

   "Someday"
G|-------------------|
D|-------------------|
A|--3-3-3-3-3-3-3-3--|
E|-------------------|
           C

   "Someday soon, somebody's gonna come"
G|-----------------------------------|
D|-----------------------------------|
A|--5-5-5-5-5-5-5-5-7-7-7-7-7-7-7-7--|
E|-----------------------------------|
           D               E

   "I hope they do this to you"
G|-----------------------------------|
D|-----------------------------------|
A|-----------------------------------|
E|--3-3-3-3-3-3-3-3-3-3-3-3-3-3-3-3--|
                   G

   "I'm not gonna let you overwhelm me"
G|----------------------------------|
D|----------------------------------|
A|--3-3-3-3-3-3-3-3-5-5-5-5-5-5-5-5-|
E|----------------------------------|
           C               D

   "I will not let you hurt me anymore"
G|-----------------------------------|
D|-----------------------------------|
A|--5-5-5-5-5-5-5-5-5-5-5-5-5-5-5-5--|
E|-----------------------------------|
                   D

   Outro
G|------------------------------|
D|------------------------------|
A|--3----3-------7----6-5----4--| Repeat
E|---------3---3----------------|
      C      G   E   Eb D    Db

End on C

That should be it.

VERSION 2 - Tabbed by Will Donovan

Intro:
G|--------------------
D|--------------------
A|2-2-1-----2-2-1-4-4-
E|------2-2-----------

Verse:
G|----------------------------
D|----------------------------
A|-2--2-1--------6--6-6-4--4-4
E|--------2--2-2--------------

Chorus:
G|------------------------------------------ 
D|------------------------------------------ 
A|-2-2-2-2-4-4-4-5-6-6-6-6--------2-2-2-2-4-  
E|-------------------------6-6-6-6----------  
  (the amount of times each not is hit changes
   for every chorus)

Bridge: (at 2:06)
G|------------------------
D|------------------------ (section in the parenthesis
A|2-2----4-4-(4-4)-6-6-4-4  are only played the second
E|----2-2-----------------  half of the bridge)

At 2:52 Play
G|---------------------
D|---------------------
A|-2-2-2-2-2-2 A BUNCH. (at 3:02 go to chorus,
E|--------------------- maybe slide up an octave)

There ya go, that's about it. Here's structure if you
need it

Intro (0:17)
Verse  4x
Chorus
Verse  10x
Chorus
Bridge
At 2:52...
Chorus 2x 
Verse 4x

JASON'S EVERCLEAR TABS - http://members.tripod.com/~panec/