Pacific Wonderland
As recorded by Everclear on the "White Trash Hell" EP and Fire Maple Song single
Tabbed by Jason P (jasonsevercleartabs@hotmail.com), Aaron (thecyberrocker@hotmail.com) 
and Steve Smith (sesmith3@eos.ncsu.edu)

VERSION 1 - Tabbed by Jason P

e|-----------------------------------5---------------------------------|
B|-----------------------------------5---------------------------------|
G|-----------------------------------6---------------------------------|
D|-----2-2-2-2-5-5-5-5-8-8-8-8-7-7-7-x--2-2-2-2-5-5-5-5-8-8-8-8-7\8/7--|
A|-12\-2-2-2-2-5-5-5-5-8-8-8-8-7-7-7-x--2-2-2-2-5-5-5-5-8-8-8-8-7\8/7--|
E|-12\-0-0-0-0-3-3-3-3-6-6-6-6-5-5-5-x--0-0-0-0-3-3-3-3-6-6-6-6-5\6/5--|
pm..................................    .............................

e|-(second guitar plays----------5-----------------(second guitar--|
B|---an open 1st string----------5------------------plays a pick---|
G|-through here occasionally)----6-------------------scrape here)--|
D|-2-2-2-2-5-5-5-5-8-8-8-8-7-7-7-x--2-2-2-2-5-5-5-5-8-8-8-8-7\8/7--|
A|-2-2-2-2-5-5-5-5-8-8-8-8-7-7-7-x--2-2-2-2-5-5-5-5-8-8-8-8-7\8/7--|
E|-0-0-0-0-3-3-3-3-6-6-6-6-5-5-5-x--0-0-0-0-3-3-3-3-6-6-6-6-5\6/5--|
pm..............................    .............................

e|-(let each chord ring)-------------------------------------------| x2
B|-----------------------------------------------------------------|
G|-----------------------------------------------------------------|
D|-2-2-----5-5-----8-8-----7-7------2-2-----5-5-----8-8-----7\8/7--|
A|-2-2-----5-5-----8-8-----7-7------2-2-----5-5-----8-8-----7\8/7--|
E|-0-0-----3-3-----6-6-----5-5------0-0-----3-3-----6-6-----5\6/5--|

e|-(deaden the strings after---------------------------------------| x2
B|--each chord)----------------------------------------------------|
G|-----------------------------------------------------------------|
D|-2-2-----5-5-----8-8-----7-7------2-2-----5-5-----8-8-----7\8/7--|
A|-2-2-----5-5-----8-8-----7-7------2-2-----5-5-----8-8-----7\8/7--|
E|-0-0-----3-3-----6-6-----5-5------0-0-----3-3-----6-6-----5\6/5--|
pm    .....   .....   .....   .....    .....   .....   .....     ..

e|-----------------------------------------------------------------| x2
B|-----------------------------------------------------------------|
G|-----------------------------------------------------------------|
D|-----------------------------------------------------3-3-----2-2-|
A|---------2-2-3-3-2-2-3-3-----------------2-2-3-3-1-1-----0-0-----|
E|-0-0-3-3-----------------2-2-3-3-0-0-3-3-------------------------|

e|-(deaden the strings after---------------------------------------| x2
B|--each chord)----------------------------------------------------|
G|-----------------------------------------------------------------|
D|-2-2-----5-5-----8-8-----7-7------2-2-----5-5-----8-8-----7\8/7--|
A|-2-2-----5-5-----8-8-----7-7------2-2-----5-5-----8-8-----7\8/7--|
E|-0-0-----3-3-----6-6-----5-5------0-0-----3-3-----6-6-----5\6/5--|
pm    .....   .....   .....   .....    .....   .....   .....     ..

Solo 1 (I haven't put the notes in a many times as they are played, but all the 
changes are (hopefully) there. I also haven't included slides, small bends etc. 
It's played over the E G Bb A chord pattern, with the rhythm guitar
letting each chord ring)
e|------------------------------------------------------------------|
B|-3-3h5-5-5-8-8-8-8b--8-8-8-8-8p5-5-5-5p3-3-3p0--8---8---8---8-10--|
G|---------------------9-9-7------------------------9---9---9-------|
D|------------------------------------------------------------------|
A|------------------------------------------------------------------|
E|------------------------------------------------------------------|

e|--------------------------------(0)---7--10-7-6-6-6-7----|
B|-8---8---8---7-7-7-7---3-3-3-3--(0)----------------------|
G|---9---9---9-----------3-3-3-3--(1)----------------------|
D|---------------------------------------------------------|
A|---------------------------------------------------------|
E|---------------------------------------------------------|

Back to the Rhythm Guitar again:
e|-----------------------------------------------------------------| x2
B|-----------------------------------------------------------------|
G|-----------------------------------------------------------------|
D|-----------------------------------------------------3-3-----2-2-|
A|---------2-2-3-3-2-2-3-3-----------------2-2-3-3-1-1-----0-0-----|
E|-0-0-3-3-----------------2-2-3-3-0-0-3-3-------------------------|
pm..................................................................

e|-(deaden the strings after---------------------------------------| x2
B|--each chord)----------------------------------------------------|
G|-----------------------------------------------------------------|
D|-2-2-----5-5-----8-8-----7-7------2-2-----5-5-----8-8-----7\8/7--|
A|-2-2-----5-5-----8-8-----7-7------2-2-----5-5-----8-8-----7\8/7--|
E|-0-0-----3-3-----6-6-----5-5------0-0-----3-3-----6-6-----5\6/5--|
pm    .....   .....   .....   .....    .....   .....   .....     ..

Solo 2 (Again played over the E G Bb A chord pattern, with the rhythm 
guitar letting each chord ring)
e|----------------7-------5-----10-10-10-10--12-12-12-12---|
B|-3-3-5-5-8-8------8-5-8---8---10-------------------------|
G|---------------------------------------------------------|
D|---------------------------------------------------------|
A|---------------------------------------------------------|
E|---------------------------------------------------------|

e|----------------------------------------------------------|
B|-8-8-8-8---8-5-5-5-3-3-3p2-2-2h3--5-5-5-7-7-8-8--(drum)---|
G|-------------------------------------------------(fill)---|
D|----------------------------------------------------------|
A|----------------------------------------------------------|
E|----------------------------------------------------------|

e|--7-------5---------------------------7b----------------------------|
B|----8-5-8---8--8-8---(more drum-------8b-8-5-5-3-0-0----------------|
G|-----------------------fill)-------------------------2-0-0----------|
D|------------------------------------------------------------(2-2)---|
A|------------------------------------------------------------(2-2)---|
E|------------------------------------------------------------(0-0)---|

VERSION 2 - Tabbed by Aaron

Riff1: (x2)
e|-----------------------------------------------------------------|
B|-----------------------------------------------------------------|
G|-----------------------------------------------------------------|
D|-----------------------------------------------------------------|
A|-----------------------------------------------------------------|
E|-0-0-0-0-3-3-3-3-6-6-6-6-5-5-5-5-0-0-0-0-3-3-3-3-6---6---5-6-5-3-|

Riff2: (x2)
e|--------------------------------------------------------------|
B|--------------------------------------------------------------|
G|--------------------------------------------------------------|
D|-2-2-----5-5-----8--8---5-5-----3-3-----5-5-----8--8--5-8-5-5-|
A|-2-2-----5-5-----8--8---5-5-----3-3-----5-5-----8--8--5-8-5-5-|
E|-0-0-----3-3-----6--6---5-5-----1-1-----3-3-----6--6--5-6-5-3-|

Riff3: (x2)
e|-----------------------------------------------------------------|
B|-----------------------------------------------------------------|
G|-----------------------------------------------------------------|
D|-----------------------------------------------------------------|
A|---------2---3---2---3---2---0-----------2---3---------5-------3-|
E|-0---4----------------------------0--4-------------3-------1-----|

Outro:
e|---------------------------------------------------------|
B|---------------------------------------------------------|
G|---------------------------------------------------------|
D|-2-2-2-2-5-5-5-5-8-8-----------2-2-2-2-5-5-5-5-8-8-------|
A|-2-2-2-2-5-5-5-5-8-8-----------2-2-2-2-5-5-5-5-8-8-------|
E|-0-0-0-0-3-3-3-3-6-6-----------0-0-0-0-3-3-3-3-6-6-------|

e|--------------------------------|
B|--------------------------------|
G|--------------------------------|
D|-2-2-2-2-5-5-5-5-8--------------| hold................
A|-2-2-2-2-5-5-5-5-8--------------|
E|-0-0-0-0-3-3-3-3-6--------------|

e|--------------------------------|
B|--------------------------------|
G|--------------------------------|
D|-7-9-7-5-2-2--------------------|
A|-7-9-7-5-2-2--------------------|
E|-5-7-5-3-0-0--------------------|

Here's the order:
Riff1, Riff1, Riff2, Riff2, Riff3, Riff2, Riff1 (with solo), 
Riff1 (very quietly with solo), Riff2, Riff1 (with solo), Outro

Sorry I don't know the solo parts. Maybe someone else can figure them out.


VERSION 3 - Tabbed by Steve Smith

This is a cool song with no lyrics. All I have is the rhythm guitar part, 
sorry no lead stuff for it yet. If you want to know where to find this one,
 it's off the White Trash Hell CD, and maybe some others. 

Rhythm riff
e|--------------------------------------
b|--------------------------------------
g|------------5-5--4-4-4-4--------------
d|--2-2--5-5--5-5--4-4-4-4--------------
a|--2-2--5-5--3-3--2-2-2-2--------------
e|--0-0--3-3----------------------------

sometimes at the end of that riff there is this little fill
e|-----------
b|-----------
g|-4---------
d|-4---------
a|-2-2h3p2-0-
e|-----------
questions? Comments? direct them to
sesmith3@eos.ncsu.edu 

JASON'S EVERCLEAR TABS - http://members.tripod.com/~panec/