Pale Green Stars
As recorded by Everclear on "Sparkle and Fade" LP
Tabbed by Steve Smith (sesmith3@eos.ncsu.edu)

Pale Green Stars is an interesting song that has a couple neat riffs and will 
take a little practice to get the rhythm right but it really isnt too hard! Enjoy!

Chord Voicings:

e|-- 
B|--
G|--
D|--12
A|--10
E|--


e|--
B|--
G|--
D|--11
A|--10 
E|-- 


e|--
B|--
G|--
D|--5
A|--3
E|--


e|--
B|--
G|--4
D|--5
A|--3
E|--


e|--
B|--
G|--
D|--5
A|--3
E|--

guitar1:
[G5]Amanda is in [G(b5)]love with the side of the moon [G5]
She's got pale [G(b5)] green stars in her [C5]room [Cmaj7]
[C5]Right above her bed [G5]
[G5]Put them on the [G(b5)]cieling
Leave on the [G5]light
When the sun goes down
Then the stars might [C5]shine [Cmaj7]
[C5]Shining in the dark 

Guitar2 (acoustic):
e|------------------------------------------------------
B|------------------------------------------------------
G|------------------------------------------------------
D|------------------------------------------2p0-------0-
A|--------------------2--5---------3-3-3---------3------ 
E|----3-3-3-----3---------------------------------------

e|------------------------------------------------------
B|------------------------------------------------------
G|------------------------------------------------------
D|-----------------------------------5/-----------------
A|----------------2--5-----3-3-3-----3/-----------------
E|---3-3-3---3------------------------------------------

VERSE2

then guitar1(x2):
e|--------------------------------------------------------
B|--------------------------------------------------------
G|--------------------------------------------------------
D| -5--5--5----5--5----5--5--5-----5--5-------------------
A| -5--5--5----5--5----3--3--3-----3--3-------------------
E| -3--3--3----3--3---------------------------------------

play that over the lyrics:
It's hard on a girl
When the blood won't come when it ought to come
It's hard on a girl 
When you try to walk around on the shaky ground

then guitar1 plays this riff:
e|------------------------------------------------------------------
B|------------------------------------------------------------------
G|------------0---------------0-------------0-----------------------
D|---------------0--------5-----------------0----------0-------0----
A|--------4-----------6-----------------0----------6-------5-------- 
E|-----5---------------------------3--------------------------------

over the lyrics
Hey hey hey hey
daddy's goin away

verse3

everything is the same except the "daddys goin away" part is chords
e|----------------------------------------------------------------
B|----------------------------------------------------------------
G|----------8--8------8--8--7--7---------------------------------
D|---7--7---8--8---5--8--8--7--7----------------------------------
A|---7--7---6--6---5--6--6--5--5----------------------------------
E|---5--5----------3---------------------------------------------- 

the solo I havent figured out yet, email me at sesmith3@eos.ncsu.edu if you have 
any corrections!
Transcribed Stephen Smith

JASON'S EVERCLEAR TABS - http://members.tripod.com/~panec/