Pale Green Stars
as recorded by Everclear on Sparkle and Fade
Tabbed by Copper (CopperForever@aol.com)

Intro:
Guitar plays first, then bass enters...

G|------------------------------------------------------------|
D|------------------------------------------------------------|
A|----------------------------------333333333333333333333-3200|
E|3333333333333333333333333333333333--------------------------|

Amanda is in love with the sight of
the moon, she's got pale green stars
in her room...                       right abve her bed

Verse:
G|-----------|
D|-----------|
A|-----22-33-|
E|3333-------|

Put em on the ceiling, leave on the light
When the sun goes down that the stars might shine

G|-----------------|
D|-----------------|
A|333333333333-3200|
E|-----------------|

Shining in the dark

Mini bridge:(sometimes there are no vocals, sometimes there are)
G|-------------------|
D|-------------------|
A|--321023-33-321023-|
E|33-----------------|

Gets so hard on a girl
She thinks it's all her fault
When it all goes wrong

Chorus:
G|----------------|
D|----------------|
A|----555----55-33|
E|3333---3333-----|

Hey, hey, daddy's going away

Solo:
Play the chorus

Outro:
G|----|
D|----|
A|----|
E|3333|(this keeps repeating)

She's got pale green stars (in her room)
She's got pale green stars {in her room)...

Suggestion from Aziltz (Aziltz@aol.com)

the bass line for pale green stars is wrong, 
the "mini bridge" should be this:

G-----------------0--
D---------0---20-2---
A-----20-2-333--3----
E--333--3------------

thanks, Aziltz

JASON'S EVERCLEAR TABS - http://members.tripod.com/~panec/