Pocohontas
As recorded by Everclear on the SMFTA single and Everything to Everyone College EP
Tabbed by Jason P (jasonsevercleartabs@hotmail.com) 

Note: The F chord is an 8th fret, A shape barre chord
The intro is a G chord muted

G (muted)                                              
Aurora Borealis          
    G (muted)
The icy sky at night
A (muted)                  
Paddles break the water
     G (muted)                     
In a long and hurried flight
         D          F      C         G    
From the white man  to the fields of green
         D         F     C     G 
and the homeland  we've never seen

(same chord progression for each verse, except without muting)                           
They killed us in our teepee
They cut our women down
They might have left some baby
Cryin' on the ground
But the big guns and the wagons wheels come
Yeah, and the night falls on the setting sun
 
They massacred the buffalo
Kitty corner from the bank
The taxis run across my feet
And my eyes have turned to blanks
In my little box at the top of the stairs
With an Indian rug and a pipe to share

e|--------------10-7----------------------------------------------------|
B|--8-(x12)-10b-------10-8-10-8---10-10-12-12-10---10-10-12-12-13-13-13-|

e|----------------------------------------------------------------------|
B|-12-13p12-12-10-10-12---13p12-13p12---10-10-8-8---10-10-12-12---10-10-|
 
e|----------------------------------------------------------------------|
B|-8--------------------------------------------------------------12\---|
G|----------------------------------------------------------------------|
D|---------------------------------------------4-4-5-5-7-7-9-9----9\----|
A|------------------------------------5-5-7-7---------------------------|
E|----7-7h8p7h8p7-------5-5-7-7-8-8-------------------------------------|

I wish I was a trapper
I would give a thousand pelts
To sleep with Pocohontas
and find out how she felt
In the morning on the fields of green
In the homeland we've never seen

And maybe Marlon Brando
Will be there by the fire
We'll sit and talk of Hollywood
And the good things there for hire
And the Astradome and the first teepee
       D      F    C          G     
Marlon Brando, Pocohontas and me
       D      F    C          G       
Marlon Brando, Pocohontas and me
    D          F    C    G
Pocohontas      
                                                 

JASON'S EVERCLEAR TABS - http://members.tripod.com/~panec/