Queen of the Air (bass)
As recorded by Everclear on "Sparkle and Fade"
Tabbed by Brian Meryweather (plan13@postoffice.ptd.net)

The bass comes in at the first chorus:

Chorus 1
 
G|-----------------------------------------------------------------------------
D|-----------------------------------------------------------------------------
A|-----------------------------------------------------------------------------
E|--4--4--4--4--5--5--5--5--0--0--0--0--2--2--2--2--4--4--4--4--5--5--5--5--0--

Verse

G|-------------------------------------------------------------------------------
D|-----------2--------------------------------------2----------------------------
A|--0--2--4-----4--2--0--2--0--2--4--2--0-----2--4-----4--2--6--6--6--6--4-4-4-4-
E|-----------------------------------------0-------------------------------------
                        (2 times)

Chorus (2 times)
Verse (2 times)

2nd Chorus
G|-----------------------------------------------------------------------------
D|-----------------------------------------------------------------------------
A|-----------------------------------------------------------------------------
E|--4--4--4--4--5--5--5--5--0--0--0--0--2--2--2--2--4--4--4--4--5--5--5--5-----

G|-----------------------------------------------------------------------------
D|-----------------------------------------------------------------------------
A|-----------------------------------------------------------------------------
E|--0--0--0--0--0--0--0--0--4--4--4--4--5--5--5--5--0--0--0--0--2--2--2--2-----

G|-----------------------------------------------------------------------------
D|-----------------------------------------------------------------------------
A|-----------------------------------------------------------------------------
E|--4--4--4--4--5--5--5--5--0--0--0--0--0--0--0--0--4--4--4--4--5--5--5--5-----

G|-----------------------------------------------------------------------------
D|-----------------------------------------------------------------------------
A|-----------------------------------------------------------------------------
E|--0--0--0--0--2--2--2--2--4--4--4--4--5--5--5--5--0--0--0--0--0--0--0--0-----

G|-----------------------------------------------------------------------------
D|-----------------------------------------------------------------------------
A|-----------------------------------------------------------------------------
E|--4--4--4--4--5--5--5--5--0--0--0--0--2--2--2--2--4--4--4--4--5-(strum a bunch of times than play a single E)

Verse (5 times) (fade out)

I hope there aren't too many mistakes, it sounds right when I play along with
the song.

JASON'S EVERCLEAR TABS - http://members.tripod.com/~panec/