Santa Baby (Bass)
As recorded by Everclear on various Christmas recordings
Tabbed by Lauren Ciechanowski (trggrhppyjack@aol.com) and Copper (CopperForever@aol.com)

VERSION 1 - Tabbed by Lauren

INTRO:
G|--------------------------------| (4x)
D|--------------------------------| 
A|-------0---0-------2---2--------| 
E|-0-2-4-------2---2-------0-0-2-4|

VERSE:
G|--------------------------------| (7x)
D|--------------------------------| 
A|-------0---0-------2---2--------| 
E|-0-2-4-------2---2-------0-0-2-4|

CHORUS:
G|----------------------------------------------------------------| 
D|----------------------------------------------------------------| 
A|-4-4-4-4-4-4-4-4-----------------2-2-2-2-2-2-2-2----------------| 
E|-----------------2-2-2-2-2-2-2-2-----------------0-0-0-0-0-0-0-0|

OUTRO:
G|----| 
D|----| 
A|----| 
E|-2-0|

VERSION 2 - Tabbed by Copper

Verse:
---------------------------
---------------------------
----------------------1-1--
-0-0--1-1--4---4-1---1-----

Chorus:
---------------------------------
---------------------------------
-----------------3333333333333333
0000000000000000-----------------


---------------------------------
---------------------------------
---------------------------------
1111111111111111/5555555555555555

JASON'S EVERCLEAR TABS - http://members.tripod.com/~panec/