Science Fiction    
As recorded by Everclear on Slow Motion Daydream
Tabbed by Craig Johnson (navyseal1313@hotmail.com)

Standard Tuning **
(Women giggling cont...) 
"Hmmm; just like science fiction; no one knows what the fuck they're talking 
About; heh; there's always one in every crowd"

Intro/Verse
|----7-7-----7-7----7-7-----7-7-----7-7----|
|----7-7-----7-7----7-7-----7-7-----7-7----|
|----8-8-----8-8----8-8-----8-8-----8-8----|
|9-9-----9-9-----9-9----9-9-----9-9-----9-9|
|9-9-----9-9-----9-9----9-9-----9-9-----9-9|
|7-7-----7-7-----7-7----7-7-----7-7-----7-7|
 There is always one in every crowd
 You can hear the voices when you're alone
 They sound like metal on metal
 Obnoxious and loud

Not Sure about this part but it sounds close
|-----9-9--8-8--10-10-------9-9--8-8--10-10|
|9-9--9-9--8-8--10-10--9-9--9-9--8-8--10-10|
|9-9--7-7--6-6--8--8---9-9--7-7--6-6--8--8-|
|7-7--7-7--6-6--8--8---7-7--7-7--6-6--8--8-|
 Don't let go
 Don't listen to the sound
 Of those people you know
 Slowly falling apart
 And falling down now
 Everything is falling down now
 (Now now now...)

|----7-7-----7-7----7-7-----7-7-----7-7----|
|----7-7-----7-7----7-7-----7-7-----7-7----|
|----8-8-----8-8----8-8-----8-8-----8-8----|
|9-9-----9-9-----9-9----9-9-----9-9-----9-9|
|9-9-----9-9-----9-9----9-9-----9-9-----9-9|
|7-7-----7-7-----7-7----7-7-----7-7-----7-7|
 Everything is falling down now
 (Now now now...)

Verse 2
|----7-7-----7-7----7-7-----7-7-----7-7----|
|----7-7-----7-7----7-7-----7-7-----7-7----|
|----8-8-----8-8----8-8-----8-8-----8-8----|
|9-9-----9-9-----9-9----9-9-----9-9-----9-9|
|9-9-----9-9-----9-9----9-9-----9-9-----9-9|
|7-7-----7-7-----7-7----7-7-----7-7-----7-7|
 When I think I'm alone
 I watch the news
 On my girlfriends TV
 It's like a bad b-movie
 Aww sometimes I can't comprehend
 All the stupid things that I see



Verse 3 
|----7-7-----7-7----7-7-----7-7-----7-7----|
|----7-7-----7-7----7-7-----7-7-----7-7----|
|----8-8-----8-8----8-8-----8-8-----8-8----|
|9-9-----9-9-----9-9----9-9-----9-9-----9-9|
|9-9-----9-9-----9-9----9-9-----9-9-----9-9|
|7-7-----7-7-----7-7----7-7-----7-7-----7-7|
 So don't let go
|-----9-9--8-8--10-10-------9-9--8-8--10-10|
|9-9--9-9--8-8--10-10--9-9--9-9--8-8--10-10|
|9-9--7-7--6-6--8--8---9-9--7-7--6-6--8--8-|
|7-7--7-7--6-6--8--8---7-7--7-7--6-6--8--8-|
 You can't believe your eyes
 Yeah, when everything they show you
 Just makes you wanna cry
 And you don't wanna know
|----7-7-----7-7----7-7-----7-7-----7-7----|
|----7-7-----7-7----7-7-----7-7-----7-7----|
|----8-8-----8-8----8-8-----8-8-----8-8----|
|9-9-----9-9-----9-9----9-9-----9-9-----9-9|
|9-9-----9-9-----9-9----9-9-----9-9-----9-9|
|7-7-----7-7-----7-7----7-7-----7-7-----7-7|
 That you need to remember
 Life is always getting better
 (Better better...)
 So don't let go
 (Go go go...)
|----7-7-----7-7----7-7-----7-7-----7-7----|
|----7-7-----7-7----7-7-----7-7-----7-7----|
|----8-8-----8-8----8-8-----8-8-----8-8----|
|9-9-----9-9-----9-9----9-9-----9-9-----9-9|
|9-9-----9-9-----9-9----9-9-----9-9-----9-9|
|7-7-----7-7-----7-7----7-7-----7-7-----7-7|
				* * * * * * * * * * = Fade Out On last one
 There is always one in every crowd
 Yeah, you see them when you think you're alone
 It all just seems like science fiction
 No one knows what they are talking about
 -----------------------------------------
 So don't let go
 Don't listen to the sound
 Of those people you know
 Slowly falling apart
 And falling down now

 You need to remember
 Life is always getting better

|----7-7-----7-7----7-7-----7-7-----7-7----|
|----7-7-----7-7----7-7-----7-7-----7-7----|
|----8-8-----8-8----8-8-----8-8-----8-8----|
|9-9-----9-9-----9-9----9-9-----9-9-----9-9|
|9-9-----9-9-----9-9----9-9-----9-9-----9-9|
|7-7-----7-7-----7-7----7-7-----7-7-----7-7|
Life is always getting better
Life is always getting better
For a while

JASON'S EVERCLEAR TABS - http://members.tripod.com/~panec/