Search and Destroy
As recorded by Everclear on the "So Much For The Afterglow" single
Tabbed by Jason P (jasonsevercleartabs@hotmail.com)

(Intro Riff)
    C#	     F#        E 	
e|-----------------------------| x2
B|-----------------------------|
G|---------------11-11-11-11p9-|
D|--11-11-11-11--11-11-11-11p9-|
A|--11-11-11-11--9--9--9--9--9-|
E|--9--9--9--9-----------------|

(Verse Riff 1)
    C#	    A	   	 C#            F#        E  
e|---------------------------------------------------|x2
B|---------------------------------------------------|
G|-------------------------------------11-11-11-11p9-|
D|--11-11-11-11--7-7-7-7--11-11-11-11--11-11-11-11p9-|
A|--11-11-11-11--7-7-7-7--11-11-11-11--9--9--9--9--9-|
E|--9--9--9--9---5-5-5-5--9--9--9--9-----------------|
pm......................
I'm a free-walking cheetah with a heart full with napalm
I'm the runaway son of a nuclear a-bomb

(Pre Chorus Riff)
    C#        B       A       B
e|------------------------------| x2 with this fill each time e|---|
B|------------------------------|                             B|-5-|
G|------------------------------|                             G|---| 
D|--11-----11-9-----9-7------/9-|
A|--11-----11-9-----9-7------/9-|
E|--9------9--7-----7-5------/7-|
I am the world's most forgotten boy,
The one who searchs and destroys

(Chorus Riff)
     F#           A            E            G#             full 
e|---------------------------------------------------------/--| x1
B|-----------------------------9--9--9--9-----------------/---|
G|---3--3--3--3---6--6--6--6----9--9--9--9--5--5--5--5---5b---|
D|----4--4--4--4---7--7--7--7----9--9--9--9--6--6--6--6-------|
A|-----4--4--4--4---7--7--7--7----------------6--6--6--6------|
E|------------------------------------------------------------|
Honey, please help me out, Somebody's gotta save my soul 
Baby, please, please for me

(Intro Riff) x2

(Verse Riff) x2
Look out honey, cause I'm using technology
                /\(1/4 bend)
e|-------------4-----------|
B|---2---------------------|
Ain't got time to make no apology

(Pre-Chorus Riff)x2 
Soul coming at ya in the dead of night
Love's in the middle of a firefight

(Chorus Riff) x1
Honey, please stop me blind
Somebody's gotta save my soul
Baby, please take my fine

(Pre Chorus Riff) x4
I am the world's most forgotten boy, 
The one who searchs, searchs to destroy
I am the world's most forgotten boy,
The one who searchs, searchs only to destroy

    C#   F# A     B
"Hey"    "Hey"
 
(Solo) 
    C#    F# A       B     C#    F# A    B    C#    F# A     B
e|-----------2/4-4/6-6/9----------------------6-7-6-7-6-7-6-7-6b---|
B|--2-2-2-2----------------2-2h4-2--2-2p0-2------------------------|
G|-----------------------------------------------------------------|
D|-----------------------------------------------------------------|
A|-----------------------------------------------------------------|
E|-----------------------------------------------------------------|
					  "Hey.....  Hey" 

C#(pm)                    A(pm)     B(pm)   C#(pm)
Look out honey, cause I'm using technology
                  A(pm)    B(pm)    C#
Ain't got time to make no apology

(pre chorus riff x2)
Soul coming at ya in the dead of night
Love's in the middle of a firefight

(Chorus riff x1)
Honey, please stop me blind
Somebody's gotta save my soul
Baby, please take my fine

(pre chorus riff x4)
I am the world's most forgotten boy,
The one who searchs, searching to destroy

I'm the world's most forgotten boy,
The one who searchs, searching to destroy

e|-------------------|--------------|
B|--2--4--5--7--(x4)-|-9-~~~~~~~~~--|
G|-------------------|--------------|
D|--(tremelo pick ---|--------------|
A|----each note)-----|--------------|
E|-------------------|--------------|
Hey Hey Heeeeeyyy
Yeah Hey

Searching to Destroy

(Sorry, I'm not gonna tab the end solo, it's just Art stuffing around)

JASON'S EVERCLEAR TABS - http://members.tripod.com/~panec/