"Sin City" (Bass)
As recorded by Everclear on "Santa Monica" Maxi Single
Tabbed by Ashton Bailey (ashton_bailey@hotmail.com)
& Jason P (jasonsevercleartabs@hotmail.com)

   Intro
G|-----------------------------------|
D|--Guitar---------------------------|
A|--Feedback---------5--7------------|
E|-------------5--7--------5--3--0---|
               A  B  D  E  A  G  Em

G|-----------------------------------------------------------|
D|-----------------------------------------------------------|
A|------7-7-7-----5-5-5-------------7-7-7-----5-5-5----------|
E|-\0-0-------7-7-------5-5-3-3-0-0-------7-7-------5-5-3-3--|
    Em    E    B    D    A   G   Em   E    B    D    A   G

G|-----------------------------------------------------------|
D|-----------------------------------------------------------|
A|------7-7-7-----5-5-5-------------7-7-7-----5-5-5----------|
E|-\0-0-------7-7-------5-5-3-3-0-0-------7-7-------5-5-3-3--|
    Em    E    B    D    A   G   Em   E    B    D    A   G

G|-----------------------------------------------------------|
D|-----------------------------------------------------------|
A|------7-7-7-----5-5-5-------------7-7-7-----5-5-5----------|
E|-\0-0-------7-7-------5-5-3-3-0-0-------7-7-------5-5-3-3--|
    Em    E    B    D    A   G   Em   E    B    D    A   G

G|-----------------------------------------------------------|
D|-----------------------------------------------------------|
A|------7-7-7-----5-5-5-------------7-7-7-----5---5---5---5--|
E|--0-0-------7-7-------5-5-3-3-0-0-------7-7----------------|
    Em    E    B    D    A   G  Em    E    B        D

G|----------------------|
D|----------------------|
A|-5-5---5---5---5---5--|
E|----------------------|
            D

   Main Verse
G|-----------------------------------------------------------|
D|-----------------------------------------------------------|
A|------7-7-7-----5-5-5-------------7-7-7-----5-5-5----------|
E|-\0-0-------7-7-------5-5-3-3-0-0-------7-7-------5-5-3-3--|
    Em    E    B    D    A   G   Em   E    B    D    A   G
                      Diamonds and dust

G|-----------------------------------------------------------|
D|-----------------------------------------------------------|
A|------7-7-7-----5-5-5-------------7-7-7-----5-5-5----------|
E|-\0-0-------7-7-------5-5-3-3-0-0-------7-7-------5-5-3-3--|
    Em    E    B    D    A   G   Em   E    B    D    A   G
                 Poor man last, rich man first

G|-----------------------------------------------------------|
D|-----------------------------------------------------------|
A|------7-7-7-----5-5-5-------------7-7-7-----5-5-5----------|
E|-\0-0-------7-7-------5-5-3-3-0-0-------7-7-------5-5-3-3--|
    Em    E    B    D    A   G   Em   E    B    D    A   G
                     Lamborghinis

G|-----------------------------------------------------------|
D|-----------------------------------------------------------|
A|------7-7-7-----5-5-5-------------7-7-7-----5-5-5----------|
E|-\0-0-------7-7-------5-5-3-3-0-0-------7-7-------5-5-3-3--|
    Em    E    B    D    A   G   Em   E    B    D    A   G
                          caviar

G|-----------------------------------------------------------|
D|-----------------------------------------------------------|
A|------7-7-7-----5-5-5-------------7-7-7-----5-5-5----------|
E|-\0-0-------7-7-------5-5-3-3-0-0-------7-7-------5-5-3-3--|
    Em    E    B    D    A   G   Em   E    B    D    A   G
                       Dry martinis

G|-----------------------------------------------------------|
D|-----------------------------------------------------------|
A|------7-7-7-----5-5-5-------------7-7-7-----5-5-5----------|
E|-\0-0-------7-7-------5-5-3-3-0-0-------7-7-------5-5-3-3--|
    Em    E    B    D    A   G   Em   E    B    D    A   G
                         Shangri-la

   Chorus
G|--------------------------------------------------|
D|--------------------------------------------------|
A|--------------------------------------------------|
E|--5--5---3/5---5--5---3/5---5--5---3/5---5-5-5-5--|
      A    G A    A     G A    A     G A      A
          I got a burnin' feelin' deep inside of me

G|---------------------------------|
D|---------------------------------|
A|---------------------------------|
E|--7---7---7---7-7-7---7---7---7--|
    B   B   B     B     B   B   B
       It's been burnin', but I'm gonna set it free

   Main Verse
G|-----------------------------------------------------------|
D|-----------------------------------------------------------|
A|------7-7-7-----5-5-5-------------7-7-7-----5-5-5----------|
E|-\0-0-------7-7-------5-5-3-3-0-0-------7-7-------5-5-3-3--|
    Em    E    B    D    A   G   Em   E    B    D    A   G
                I'm going in to sin city

G|-----------------------------------------------------------|
D|-----------------------------------------------------------|
A|------7-7-7-----5-5-5-------------7-7-7-----5-5-5----------|
E|-\0-0-------7-7-------5-5-3-3-0-0-------7-7-------5-5-3-3--|
    Em    E    B    D    A   G   Em   E    B    D    A   G
               I'm gonna win in sin city

G|-----------------------------------------------------------|
D|-----------------------------------------------------------|
A|------7-7-7-----5-5-5-------------7-7-7-----5-5-5----------|
E|-\0-0-------7-7-------5-5-3-3-0-0-------7-7-------5-5-3-3--|
    Em    E    B    D    A   G   Em   E    B    D    A   G
     Where the lights are bright, do the town tonight

G|-----------------------------------------------------------|
D|-----------------------------------------------------------|
A|------7-7-7-----5-5-5-------------7-7-7-----5---5---5---5--|
E|--0-0-------7-7-------5-5-3-3-0-0-------7-7----------------|
    Em    E    B    D    A   G  Em    E    B        D
              I'm gonna win in sin city

G|----------------------|
D|----------------------|
A|-5-5---5---5---5---5--|
E|----------------------|
            D

   Guitar Solo
G|-----------------------------------------------------------|
D|-----------------------------------------------------------|
A|------7-7-7-----5-5-5-------------7-7-7-----5-5-5----------|
E|-\0-0-------7-7-------5-5-3-3-0-0-------7-7-------5-5-3-3--|
    Em    E    B    D    A   G   Em   E    B    D    A   G

G|-----------------------------------------------------------|
D|-----------------------------------------------------------|
A|------7-7-7-----5-5-5-------------7-7-7-----5-5-5----------|
E|-\0-0-------7-7-------5-5-3-3-0-0-------7-7-------5-5-3-3--|
    Em    E    B    D    A   G   Em   E    B    D    A   G

G|-----------------------------------------------------------|
D|-----------------------------------------------------------|
A|------7-7-7-----5-5-5-------------7-7-7-----5-5-5----------|
E|-\0-0-------7-7-------5-5-3-3-0-0-------7-7-------5-5-3-3--|
    Em    E    B    D    A   G   Em   E    B    D    A   G

   Interlude (Bass Only)
G|-----------------------------------------------------------|
D|-----------------------------------------------------------|
A|------7-7-7-----5-5-5-------------7-7-7-----5-5-5----------|
E|-\0-0-------7-7-------5-5-3-3-0-0-------7-7-------5-5-3-3--|
    Em    E    B    D    A   G   Em   E    B    D    A   G

G|-----------------------------------------------------------|
D|-----------------------------------------------------------|
A|------7-7-7-----5-5-5-------------7-7-7-----5-5-5----------|
E|-\0-0-------7-7-------5-5-3-3-0-0-------7-7-------5-5-3-3--|
    Em    E    B    D    A   G   Em   E    B    D    A   G
                    Ladders and snakes

G|-----------------------------------------------------------|
D|-----------------------------------------------------------|
A|------7-7-7-----5-5-5-------------7-7-7-----5-5-5----------|
E|-\0-0-------7-7-------5-5-3-3-0-0-------7-7-------5-5-3-3--|
    Em    E    B    D    A   G   Em   E    B    D    A   G
                 Ladders give, snakes take

G|-----------------------------------------------------------|
D|-----------------------------------------------------------|
A|------7-7-7-----5-5-5-------------7-7-7-----5-5-5----------|
E|-\0-0-------7-7-------5-5-3-3-0-0-------7-7-------5-5-3-3--|
    Em    E    B    D    A   G   Em   E    B    D    A   G
                    Rich man, poor man

G|-----------------------------------------------------------|
D|-----------------------------------------------------------|
A|------7-7-7-----5-5-5-------------7-7-7-----5-5-5----------|
E|-\0-0-------7-7-------5-5-3-3-0-0-------7-7-------5-5-3-3--|
    Em    E    B    D    A   G   Em   E    B    D    A   G
                     beggarman, thief

G|-----------------------------------------------------------|
D|-----------------------------------------------------------|
A|------7-7-7-----5-5-5-------------7-7-7-----5-5-5----------|
E|-\0-0-------7-7-------5-5-3-3-0-0-------7-7-------5-5-3-3--|
    Em    E    B    D    A   G   Em   E    B    D    A   G
                 You ain't got a hope in hell

G|-----------------------------------------------------------|
D|-----------------------------------------------------------|
A|------7-7-7-----5-5-5-------------7-7-7-----5-5-5----------|
E|-\0-0-------7-7-------5-5-3-3-0-0-------7-7-------5-5-3-3--|
    Em    E    B    D    A   G   Em   E    B    D    A   G
                  yeah that's my belief

G|-----------------------------------------------------------|
D|-----------------------------------------------------------|
A|------7-7-7-----5-5-5-------------7-7-7-----5-5-5----------|
E|-\0-0-------7-7-------5-5-3-3-0-0-------7-7-------5-5-3-3--|
    Em    E    B    D    A   G   Em   E    B    D    A   G
                    Fingers Freddy

G|-----------------------------------------------------------|
D|-----------------------------------------------------------|
A|------7-7-7-----5-5-5-------------7-7-7-----5-5-5----------|
E|-\0-0-------7-7-------5-5-3-3-0-0-------7-7-------5-5-3-3--|
    Em    E    B    D    A   G   Em   E    B    D    A   G
                      Diamond Jim

G|-----------------------------------------------------------|
D|-----------------------------------------------------------|
A|------7-7-7-----5-5-5-------------7-7-7-----5-5-5----------|
E|-\0-0-------7-7-------5-5-3-3-0-0-------7-7-------5-5-3-3--|
    Em    E    B    D    A   G   Em   E    B    D    A   G
                   They're gettin' ready

G|-----------------------------------------------------------|
D|-----------------------------------------------------------|
A|------7-7-7-----5-5-5-------------7-7-7-----5-5-5----------|
E|-\0-0-------7-7-------5-5-3-3-0-0-------7-7-------5-5-3-3--|
    Em    E    B    D    A   G   Em   E    B    D    A   G
                     cause I'm comin' in

   Chorus
G|-----------------------------------------------|
D|-----------------------------------------------|
A|-----------------------------------------------|
E|--5--5--5--5--5--5--5--5--5--5--5--5--5--5--5--|
                      A
So spin that wheel, cut the crap, and roll those loaded dice

G|-----------------------------------------------|
D|-----------------------------------------------|
A|-----------------------------------------------|
E|--7--7--7--7--7--7--7--7--7--7--7--7--7--7--7--|
                      B
Bring on the dancin' girls and put the champagne on ice

   Main Verse
G|-----------------------------------------------------------|
D|-----------------------------------------------------------|
A|------7-7-7-----5-5-5-------------7-7-7-----5-5-5----------|
E|-\0-0-------7-7-------5-5-3-3-0-0-------7-7-------5-5-3-3--|
    Em    E    B    D    A   G   Em   E    B    D    A   G
               I'm going in to sin city

G|-----------------------------------------------------------|
D|-----------------------------------------------------------|
A|------7-7-7-----5-5-5-------------7-7-7-----5-5-5----------|
E|-\0-0-------7-7-------5-5-3-3-0-0-------7-7-------5-5-3-3--|
    Em    E    B    D    A   G   Em   E    B    D    A   G
               I'm gonna win in sin city

G|-----------------------------------------------------------|
D|-----------------------------------------------------------|
A|------7-7-7-----5-5-5-------------7-7-7-----5-5-5----------|
E|-\0-0-------7-7-------5-5-3-3-0-0-------7-7-------5-5-3-3--|
    Em    E    B    D    A   G   Em   E    B    D    A   G
     Where the lights are bright, do the town tonight

G|-----------------------------------------------------------|
D|-----------------------------------------------------------|
A|------7-7-7-----5-5-5-------------7-7-7-----5---5---5---5--|
E|--0-0-------7-7-------5-5-3-3-0-0-------7-7----------------|
    Em    E    B    D    A   G  Em    E    B        D
              I'm gonna win in sin city____________________

G|----------------------|
D|----------------------|
A|-5-5---5---5---5---5--|
E|----------------------|
            D

G|-----------------------|
D|-----------------------|
A|-------5--7------------|
E|-5--7--------5--3--0---|

And finish with a big rock ending

JASON'S EVERCLEAR TABS - http://members.tripod.com/~panec/