Slide (bass)
As recorded by Everclear on "SFAAM #2: Good Time for a Bad Attitude"
Tabbed by Joel Aponte (craigfan112@everclearfanatic.com or aponteja@prtc.net)

The song is played on drop D tuning(weird for an EC song,most are played on normal tuning),
and Craig adds some little variations,especially near the end,on the final verse and bridge.
Comments and shit: craigfan112@everclearfanatic.com or aponteja@prtc.net

~-let ring

First play this little intro...
G|-----0h7h9--7--5--4--2--0-----|
D|---------------------------4--|
A|------------------------------|
D|------------------------------|
                                                                                
...then do this once...                                                                                
G|---------------------------------------------------|
D|---1--1--1--1--1--1--1--1--1--1--1--1--1--1--1--1--|
A|---------------------------------------------------|
D|---------------------------------------------------|
                                                                                
..This is the main verse riff,play this 4 times
                                          (3) is played last 2 times around     
G|--------------------------------------------------------------------------
D|*--1--1--1--1--1--1--1--1-------------------------------------------------
A|*--------------------------2--2--2--2--2--2--2--2--(3)--1--1--1--1--1-----
D|--------------------------------------------------------------------------
                                                                                
-------------------------------------|
------------------------------------*|
---1--2--1--------------------------*|
------------6--6--6--6--6--6--7--6---|
                                                                                

...After that are the Chorus riff,play each 4 times also...
Chorus #1                  4xChorus #2                     4x          
G|-------------------------||----------------------------|
D|*-----------------------*||*--------------------------*|
A|*-----------------------*||*--------------------------*|
D|---1--1--1-----4--5--6---||---1--1--1--0-----4--5--6---|
                                                                                

Next is the bridge, now my speakers suck,so i didnt hear this too good,if anyone has 
something better than this, dont hesitate to correct it.

Bridge   play this part 2 times,then the rest once     2x     
G|----------------------------------------------------|
D|*--------3--2--------------------------------------*|
A|*--2--2--------0--0--3--2--------------------------*|
D|---------------------------1--1--1--0-----4--5--6---|
                                                                                
G|------------------------------------------------------------------------------
D|---------3--2-----------------------6--7-----------------------3--2-----------
A|---2--2--------0--0--3--2-----5--5--------2--2--6--5-----2--2--------0--0-----
D|------------------------------------------------------------------------------
                                                                            
G---------------------0h7h9--7--5--4--2--0-----|
D-------------------------------------------4--|
A---3--2---------------------------------------|
D---------1~~~~---1----------------------------|

Ok then play the Verse riff 4 times,be sure to add your own zest to it, 
cuz it has lots of variations

Then play the Chorus Riffs 4 times each

The the whole bridge one more time,with variations also. 
The song ends when you play Db and let it ring
                             
ENJOY!!!
j.                                               

JASON'S EVERCLEAR TABS - http://members.tripod.com/~panec/