Slow Motion Genius
As recorded by Everclear on the Nervous and Wierd EP
Tabbed by Andrew Spears (ilikethebeatles@hotmail.com)

This is simply the rhythm guitar.

Key:
b = bend string
v = strum down
^ = strum up

The intro is simply feedback leading into the below figure, which introduces the song.

   v v v v v ^ v ^ v ^ v v  v v v ^ v ^ v ^
e|-------------------------------------------|
B|-------------------------------------------|
G|--7-7-7-7-7-7-7-7-7-7-7-7-b7-7-7-7-7-7-7-7-|
D|--X-X-X-X-X-X-X-X-X-X-X-X-X-X-X-X-X-X-X-X--|
A|--5-5-5-5-5-5-5-5-5-5-5-5-b5-5-5-5-5-5-5-5-|
E|-------------------------------------------|

The main line is similar to Your Genius Hands, with no bends like the intro, just slower strumming.

   v v v v v ^ v ^ v ^ v v  v v v ^ v ^ v ^
e|------------------------------------------|
B|------------------------------------------|
G|--7-7-7-7-7-7-7-7-7-7-7-7-7-7-7-7-7-7-7-7-|
D|--X-X-X-X-X-X-X-X-X-X-X-X-X-X-X-X-X-X-X-X-|
A|--5-5-5-5-5-5-5-5-5-5-5-5-5-5-5-5-5-5-5-5-|
E|------------------------------------------|

Simple enough. 

JASON'S EVERCLEAR TABS - http://members.tripod.com/~panec/