Southern Girls
As recorded by Everclear on SMFTA Japanese Import
Tabbed by Jason P (jasonsevercleartabs@hotmail.com)

   E
e|-0--------------------------0------------------|
B|-0--------------------------0------------------|
G|-1--------------------------1-----------(small-|
D|-2--------------------------2------------pick--|
A|-2--------------------------2-----------scrape)|
E|-0--------------------------0------------------|
 |                                               |
e|------------------12---------------------/-/-/-|
B|---------------------12----12------------/-/-/-|
G|------------------------13-13------------/-/-/-|
D|-----------------------------------------------|
A|-----------------------------------------------|
E|-----------------------------------------------|

(no chords)
I been north I been east to the Californian beaches there's only one place I 
know where 

     B                                      A
e|---2----------------------------------2---0------|
B|---4----------------------------------4---2------|
G|---4----------------------------------4---2------|
D|---4----------------------------------4---2------|
A|---2----------------------------------2---0------|
E|-------------------------------------------------|
to find you and all you Southern girls got a way with your words 

       E
e|-0---0--------------------------0------------------|
B|-2---0--------------------------0------------------|
G|-2---1--------------------------1------------------|
D|-2---2--------------------------2------------------|
A|-0---2--------------------------2------------------|
E|-----0--------------------------0------------------|
 |                                                   |
e|----------------------12---------------------------|
B|-------------------------12----12------------------|
G|----------------------------13-13------------------|
D|---------------------------------------------------|
A|---------------------------------------------------|
E|---------------------------------------------------|
and you show it            You say hump and I'll jump you say go
				   and I know, waste no time gettin so close to 

     B                       A               E
e|---2-------------------2---0-----------0---0------|
B|---4-------------------4---2-----------2---0------|
G|---4-------------------4---2-----------2---1------|
D|---4-------------------4---2-----------2---2------|
A|---2-------------------2---0-----------0---2------|
E|-------------------------------------------0------|
    you and you'll never run away when you find out I wanted to find you

    E              B               A  Asus4 A Asus4 A Asus4 A Asus4
e|-----------------------------------------------------------------| x4
B|-----------------4-4-4-4-4-4-4-4-2-2-3-3-2-2-3-3-2-2-3-3-2-2-3-3-|
G|-1-1-1-1-1-1-1-1-4-4-4-4-4-4-4-4-2-2-2-2-2-2-2-2-2-2-2-2-2-2-2-2-|
D|-2-2-2-2-2-2-2-2-4-4-4-4-4-4-4-4-2-2-2-2-2-2-2-2-2-2-2-2-2-2-2-2-|
A|-2-2-2-2-2-2-2-2-2-2-2-2-2-2-2-2-0-0-0-0-0-0-0-0-0-0-0-0-0-0-0-0-|
E|-0-0-0-0-0-0-0-0-------------------------------------------------|
Ooo baby needs some brand new shoes
Get out on the street you got nothing to lose
You rock me and I'm crazy and everyone says it, yeah yeah
Southern Girls, you got nothing to lose  

   E
e|-0--------------------------------------------|
B|-0--------------------------------------------|
G|-1---------------------(slightly depress------|
D|-2-----------------------tremelo bar)---------|
A|-2--------------------------------------------|
E|-0--------------------------------------------|
I've been up, I've been down, I've been weak, I've been strong, but I've never met someone    

     B                                     A
e|---2-2-----------------------------------0-0----|
B|---4-4-----------------------------------2-2----|
G|---4-4-----------------------------------2-2----|
D|---4-------------------------------------2------|
A|---2-------------------------------------0------|
E|------------------------------------------------|
like you and you'll never run away when you find out I wanted 

      E
e|----0--------------------------0------------------|
B|----0--------------------------0------------------|
G|----1--------------------------1------------------|
D|----2--------------------------2------------------|
A|----2--------------------------2------------------|
E|----0--------------------------0------------------|
to find you                You say hump and I'll jump you say go
				   and I know, waste no time gettin so close to 

     B                      A              E
e|---2-2--------------------0-0------------0------|
B|---4-4--------------------2-2------------0------|
G|---4-4--------------------2-2------------1------|
D|---4----------------------2--------------2------|
A|---2----------------------0--------------2------|
E|-----------------------------------------0------|
    you and all you Southern girls have a way with your words and you show it

    E              B               A  Asus4 A Asus4 A Asus4 A Asus4
e|-----------------------------------------------------------------| x5
B|-----------------4-4-4-4-4-4-4-4-2-2-3-3-2-2-3-3-2-2-3-3-2-2-3-3-|
G|-1-1-1-1-1-1-1-1-4-4-4-4-4-4-4-4-2-2-2-2-2-2-2-2-2-2-2-2-2-2-2-2-|
D|-2-2-2-2-2-2-2-2-4-4-4-4-4-4-4-4-2-2-2-2-2-2-2-2-2-2-2-2-2-2-2-2-|
A|-2-2-2-2-2-2-2-2-2-2-2-2-2-2-2-2-0-0-0-0-0-0-0-0-0-0-0-0-0-0-0-0-|
E|-0-0-0-0-0-0-0-0-------------------------------------------------|
Ooo baby needs some brand new shoes
Get out on the street you got nothing to lose
You rock me and I'm crazy and everyone says it, yeah yeah
Southern Girls, you got nothing to lose  
Southern Girls, you got nothing to lose  

   B   A  Ab B   A  Ab B      
e|-------------------------|
B|-------------------------|
G|-8---6-6-7-8---6-6-7-8---|
D|-9---7-7-8-9---7-7-8-9---|
A|-9---7-7-8-9---7-7-8-9---|
E|-7---5-5-6-7---5-5-6-7---|
         
                              B    D
e|------------------------------------------------|
B|---------------------------------7--------------|
G|----------------------------8-8--7--------------|
D|----------------------------9-9--7--------------|
A|----------------------------9-9--5--------------|
E|----------------------------7-7-----------------|
    You might think this boy loves you Southern Girl

   D    B                         F#   A
e|-----------------------------------------------|
B|-7/---4----------------------------------------|
G|-7/---4-------------------------3-3\-6-6-------|
D|-7/---4-------------------------4-4\-7-7-------|
A|-5/---2-------------------------4-4\-7-7-------|
E|--------------------------------2-2\-5-5-------|
          You make it hard, oh so hard        


      E
e|----0--------------------------------------------|
B|----0--------------------------------------------|
G|----1--------------------4b----------------------|
D|----2--------------------------------------------|
A|----2--------------------------------------------|
E|----0--------------------------------------------|
I been north I been east to the Californian beaches there's only one place I 
know where 

     B                      A              E
e|---2-2--------------------0-0------------0---------|
B|---4-4--------------------2-2------------0---------|
G|---4-4--------------------2-2------------1---Pick--|
D|---4----------------------2--------------2--Scrape-|
A|---2----------------------0--------------2---------|
E|-----------------------------------------0---------|
    you and all you Southern girls have a way with your words and you show it

    E              B               A  Asus4 A Asus4 A Asus4 A Asus4
e|-----------------------------------------------------------------| x5
B|-----------------4-4-4-4-4-4-4-4-2-2-3-3-2-2-3-3-2-2-3-3-2-2-3-3-|
G|-1-1-1-1-1-1-1-1-4-4-4-4-4-4-4-4-2-2-2-2-2-2-2-2-2-2-2-2-2-2-2-2-|
D|-2-2-2-2-2-2-2-2-4-4-4-4-4-4-4-4-2-2-2-2-2-2-2-2-2-2-2-2-2-2-2-2-|
A|-2-2-2-2-2-2-2-2-2-2-2-2-2-2-2-2-0-0-0-0-0-0-0-0-0-0-0-0-0-0-0-0-|
E|-0-0-0-0-0-0-0-0-------------------------------------------------|
Ooo baby needs some brand new shoes
Get out on the street you got nothing to lose
I feel crazy and everyone says it, yeah yeah
Oh, Southern Girls, you got nothing to lose  
Yeah Southern Girls, you got nothing to lose  

e|-------------------------------------------------------|
B|-------------------------------------------------------|
G|-1-1------4b--1-1-----4b---1-1----1-1---pick scrape--1-|
D|-2-2----------2-2----------2-2----2-2----------------2-|
A|-2-2----------2-2----------2-2----2-2----------------2-|
E|-0-0----------0-0----------0-0----0-0----------------0-|
      Southern Girls, Southern Girls!

JASON'S EVERCLEAR TABS - http://members.tripod.com/~panec/