Sparkle (bass)
As recorded by Everclear on World of Noise LP
Tabbed by Joel Zimmerman (cheesy_poofs@usa.net)

Any comments/questions/corrections/mistakes/whatever e-mail me at 
cheesy_poofs@usa.net 

another great everclear song...this tab works with both the regular 
version and the lounger version of sparkle, and i personally think the 
lounger version is much funner to play!  play with regular tuning, and 
just so ya know, X=rest.  well, here it is... 

start off by strumming a D in the opening when the drums enter, then 
the verse goes like this: 

VERSE: 
G|---------------------------------------------------------- 
D|---------------------------------------------------------- 
A|-X-5----------------5-5-5-5-5-5-5-5----------------5-5-5-5 
E|-----2-2-2-2-3-3-3-3----------------2-2-2-2-3-3-3-3------- 
play this two times, then go to the chorus... 

CHORUS: 
G|-------------------------------- 
D|-------------------------------- 
A|-2-2-2-2-0-0-0-0-5-5-5-5-------- 
E|-------------------------3-3-3-3 
play the chorus twice, then play this kinda "chorus-outro" once... 

CHORUS part2: 
G|-------------------------------- 
D|-------------------------------- 
A|-2-2-2-2-0-0-0-0---------------- 
E|-----------------3-3-3-3-3-3-3-3 
now go back to the verse and play that twice, followed by the chorus 
twice and then the second part of the chorus once again, and then play 
this fill once... 

FILL: 
G|-------------------------------- 
D|-------------------------------- 
A|-------------------------------- 
E|-0-0-0-0-0-0-0-0-3-3-3-3-3-3-3-3 
after that, play this 4 times... 

FILL 2: 
G|------------------------------- 
D|--------4-4-4-4-5-5-5-5-5------ 
A|-5-5-5-5------------------4-4-4 
E|------------------------------- 
then go back to the verse and play that twice again, followed by the 
chorus which you play 4 times, then the second chorus part once, and 
then the first fill twice, and that will bring you to the outro... 

OUTRO: 
G|-------------------11--------12------- 
D|--------12-------11--------12--------- 
A|------12------------------------------ 
E|-10-10-----10-10------10-10------9-9-9 

end by hitting same D that you started the song on and that's all...it 
may seem complicated at first, but just listen to the song for timing 
and stuff and it should come quickly.  good luck!   

JASON'S EVERCLEAR TABS - http://members.tripod.com/~panec/