Static (acoustic)
Original Version recorded by Colorfinger on "Deep in the Heart of the Beast in the Sun" LP 
Transcribed By Lauren Ciechanowski (trggrhppyjack@aol.com) 

Notes: 
This is my first tab. All I could really get were the chords, 
but if you just play around you'll get the strumming okay.  

INTRO: 
e|----0---0---0---0---0---0---0---0|--0--|
B|---------------------------------|--0--|
G|------4---3---4-------4---3------|--4--|
D|--6---------------6-----------4--|--6--|
A|---------------------------------|--x--|
E|----------------------------(2x)-|--x--|  

VERSE: 
e|--0--------0--------0---(3x)|
B|--0--------0--------0-------|
G|--6--------7--------1-------|
D|--7--------8--------2-------|
A|--7--------8--------2-------|
E|--5--------6--------0-------|   
Yeah, just about live in the bars around town. 

e|--0-------0---------0---0-------0---------------|
B|--0-------0---------0---0-------0---------------|
G|--1-------4---------3---2-------1---------------|
D|--2-------5---------4---3-------2---------------|
A|--2-------5---------4---3-------2---------------|
E|--0-------3---------2---1-------0---------------| 
..Each and every day I need static... 

e|--0--------------0-----0-----0-------|
B|--0--------------0-----0-----0-------|
G|--4--------------3-----2-----1-------|
D|--5--------------4-----3-----2-------|
A|--5--------------4-----3-----2-------|
E|--3--------------2-----1-----0-------|
... I don't want to go home alone. 

e|--0---------0---------------0----|0--0-0-0|
B|--0---------0---------------0----|0--0-0-0|
G|--4---------6---------------1----|4--3-2-1|
D|--5---------7---------------2----|5--4-3-2|
A|--5---------7---------------2----|5--4-3-2|
E|--3---------5---------------0----|3--2-1-0|  
I don't want to go home, I don't want to go home

e|-0---------0--------------|0---------0-----------------|
B|-0---------0--------------|0---------0-----------------|
G|-4---------6--------------|9---------11----------------|
D|-5---------7--------------|10--------12----------------|
A|-5---------7--------------|10--------12----------------|
E|-3---------5--------------|8---------10----------------|  
 I don't want to go home alone. 

e|--0---------0---------------0----|0--0-0-0|
B|--0---------0---------------0----|0--0-0-0|
G|--4---------6---------------1----|4--3-2-1|
D|--5---------7---------------2----|5--4-3-2|
A|--5---------7---------------2----|5--4-3-2|
E|--3---------5---------------0----|3--2-1-0| 

BRIDGE:
e|-0--0--0--0--0--0--0--0-|
B|-0--0--0--0--0--0--0--0-|
G|-6--8--1--8--1--8--6--1-|
D|-7--9--2--9--2--9--7--2-|
A|-7--9--2--9--2--9--7--2-|
E|-5--7--0--7--0--7--5--0-| 
Then it goes into the faster part, same chords though.
Good luck, sorry it sucks...

JASON'S EVERCLEAR TABS - http://members.tripod.com/~panec/