"Strawberry" Live (Bass)
As originaly recorded by Everclear on "Sparkle & Fade"
Tabbed By Ashton Bailey (ashton_bailey@hotmail.com)

NOTE: This is not the way to play the song if you're playing with the album.
When playing this song live, Everclear play it one step down from the album
version. So if you want to play with the album, play every note two frets up
the fretboard - Jason

Key:
pm = palm mute
\ = slide up towards the neck
/ = slide down towards the body
fb = feedback
h = hammer
b = bend string
r = ring (let string ring)

Note this is the way Craig plays it live, I know for a fact that this is 
correct cause I asked Craig, and I have a video of one of 
their concerts, and this is how he plays it.

   Verse 1
G|-----------------------------------|
D|-----------------------------------|
A|-----------------------------------|
E|--3-3-3-3-3-3-3-3-5-5-5-5-5-5-5-5--|
           G               A
   Never been here, never coming back

G|-----------------------------------|
D|-----------------------------------|
A|-----------------------------------|
E|--3-3-3-3-3-3-3-3-5-5-5-5-8-8-8-8--|
           G           A       C
   Never want to think about the things That happened today

G|-----------------------------------|
D|-----------------------------------|
A|-----------------------------------|
E|--3-3-3-3-3-3-3-3-5-5-5-5-5-5-5-5--|
           G               A
   Want to lay down on the warm ground

G|-----------------------------------|
D|-----------------------------------|
A|-----------------------------------|
E|--3-3-3-3-3-5-5-5-5-7-7-7-7-8-8-8--|
        G        A       B      C
   I think I'm going to need a little time to myself


   Chorus
G|-----------------------------------|
D|-----------------------------------|
A|-----------------------------------|
E|--8-3-3-3-3-5-5-5-5-7-7-7-7-8-8-8--|
    C    G       A       B
   Don't fall down now You will never get up

G|-----------------------------------------------------|
D|-----------------------------------------------------|
A|-----------------------------------------------------|
E|--8-3-3-3-3-5-5-5-5-5-5-5-5-5-5-5-5-5-5-5-5-5-5-5-5--|
    C    G                       A
   Don't fall down now

   Verse 2
G|-----------------------------------|
D|-----------------------------------|
A|-----------------------------------|
E|--3-3-3-3-3-3-3-3-5-5-5-5-5-5-5-5--|
           G               A
   I ask you for a slow ride, Going nowhere

G|-----------------------------------|
D|-----------------------------------|
A|-----------------------------------|
E|--3-3-3-3-3-3-3-3-5-5-5-5-8-8-8-8--|
           G           A       C
   You look like Satan, You ask me if I want to get high

G|-----------------------------------|
D|-----------------------------------|
A|-----------------------------------|
E|--3-3-3-3-3-3-3-3-5-5-5-5-5-5-5-5--|
           G               A
   Couple of bags down in old town

G|-----------------------------------|
D|-----------------------------------|
A|-----------------------------------|
E|--3-3-3-3-3-5-5-5-5-7-7-7-7-8-8-8--|
        G        A       B      C
   You tie your arm and, Ask me if I wanted to drive

   Chorus
G|-----------------------------------|
D|-----------------------------------|
A|-----------------------------------|
E|--8-3-3-3-3-5-5-5-5-7-7-7-7-8-8-8--|
    C    G       A       B
   Don't fall down now You will never get up

G|-----------------------------------------------------|
D|-----------------------------------------------------|
A|-----------------------------------------------------|
E|--8-3-3-3-3-5-5-5-5-5-5-5-5-5-5-5-5-5-5-5-5-5-5-5-5--|
    C    G                       A
   Don't fall down now

   Verse 3
G|-----------------------------------|
D|-----------------------------------|
A|-----------------------------------|
E|--3-3-3-3-3-3-3-3-5-5-5-5-5-5-5-5--|
           G               A
   Last thing I recall, I was in the air

G|-----------------------------------|
D|-----------------------------------|
A|-----------------------------------|
E|--3-3-3-3-3-3-3-3-5-5-5-5-8-8-8-8--|
           G           A       C
   I woke up in the street, Crawling with my strawberry burns

G|-----------------------------------|
D|-----------------------------------|
A|-----------------------------------|
E|--3-3-3-3-3-3-3-3-5-5-5-5-5-5-5-5--|
           G               A
   Ten long years in a straight line

G|-------------------------------|
D|-------------------------------|
A|-------------------------------|
E|--3-3-3-3-3-3-3-3---5---7---8--|
           G          A   B   C
   They fall like water, Yes, I guess I fucked up again

   Chorus
G|-----------------------------------|
D|-----------------------------------|
A|-----------------------------------|
E|--8-3-3-3-3-5-5-5-5-7-7-7-7-8-8-8--|
    C    G       A       B
   Don't fall down now You will never get up

G|-----------------------------------|
D|-----------------------------------|
A|-----------------------------------|
E|--8-3-3-3-3-5-5-5-5-7-7-7-7-8-8-8--|
    C    G       A       B
   Don't fall down now

G|-----------------------------------|
D|-----------------------------------|
A|-----------------------------------|
E|--8-3-3-3-3-5-5-5-5-7-7-7-7-8-8-8--|
    C    G       A       B
   Don't fall down now, You will never get up

G|-----------------------------------------------------|
D|-----------------------------------------------------|
A|-----------------------------------------------------|
E|--8-3-3-3-3-5-5-5-5-5-5-5-5-5-5-5-5-5-5-5-5-5-5-5-5--|
    C    G                       A
   Don't fall down now

G|-----------------------------------|
D|-----------------------------------|
A|-----------------------------------|
E|--5-5-5-5-5-5-5-5-5-5-5-5-5-5-5-5--|
                    A
    now                         now________

G|-----------------------------------|
D|-----------------------------------|
A|-----------------------------------|
E|--8-3-3-3-3-5-5-5-5-7-7-7-7-8-8-8--|
    C    G       A       B
   __________________________


G|--------------------------------------------------------|
D|--------------------------------------------------------|
A|--------------------------------------------------------|
E|--8-3-3-3-3-5-5-5-5-5-5-5-5-5-5-5-5-5-5-5-5-5-5-5-5-3~--|
    C    G                       A                    G
   _________________________________________________

That should be it.

JASON'S EVERCLEAR TABS - http://members.tripod.com/~panec/