"Summerland" (Bass)
As recorded by Everclear on "Sparkle & Fade"
Tabbed by Ashton Bailey (ashton_bailey@hotmail.com)

   Intro
G|-----------------------------------|
D|-----------------------------------|
A|-----------------------------------|
E|--1-----1-4-----4-8---8-8-6-6-4-4--|
    F     F Ab   Ab C    C   Bb  Ab

   Main Verse
G|----------------------------------------------|
D|----------------------------------------------|
A|--8-8-6-6-------------------------------------|
E|--------------6-6-4-4----3-3-1-1-----1-1-4-4--|
     Fb  Eb      Bb  Ab     G   F       F   Ab

   Chorus
G|-----------------------------------|
D|-----------------------------------|
A|-----------------------------------|
E|--1-----1-4-----4-8---8-8-6-6-4-4--|
    F     F Ab   Ab C    C   Bb  Ab

   Outro
G|------------------|
D|------------------|
A|--8-8-8-6-6-6-6~--|
E|------------------|
      Fb     Eb

JASON'S EVERCLEAR TABS - http://members.tripod.com/~panec/