Sunflowers  
As recorded by Everclear on "So much for the Afterglow"
Tabbed by Hugh Yik (hyik@nb.sympatico.ca), CJ Minyard (coma316@ihateclowns.com) 
and Steve Smith (sesmith3@eos.ncsu.edu) 

VERSION 1 - Tabbed by Hugh Yik

    (Here are all the Riffs and Fills you should need.  You can put it all together 
yourself.  Sorry no Lead Guitar stuff for the other middle part of the song, no real 
pattern to it)

-INTRO-(guitar distorded)

e|--------------------|
B|--------------------|
G|----------5-5-5-----|
D|----------5-7-5---5-|
A|--3-3-3/7-------7-5-|
E|--------------------|

-MAIN RIFF-(guitars distorted)
(G1) G              C9
e|---3-3------------------|
B|---3-3------------3---3-|
G|---0-0--0-2-4p2p0-0-0-0-|
D|---0-0------------x-2-0-|
A|---2-2------------3-3---|
E|---3-3------------------|
(G2)                      |
e|--------3-5-7p5p3-------|
B|--------3-3-3-3-3-------|
G|------------------------|
D|------------------------|
A|------------------------|
E|------------------------|
(Bass)                    |
G|------------------------|
D|------------------------|
A|------------------3-3-5-|
E|---3-3------------------|

-VERSE RIFF- (guitar 1 clean)
    G               C9
e|-----------------------|
B|-----------------------|
G|------0-2-4p2p0-----0--|
D|--0-0-----------0-0-0--|
A|--2-2-----------0-3----|
E|--3-3------------------|
 |                       |
e|------3-5-7p5p3--------|
B|------3-3-3-3-3--------|
G|-----------------------|
D|-----------------------|
A|-----------------------|
E|-----------------------|
 |                       |
G|-----------------------|
D|--------------------0--|
A|----------------0-3----|
E|--3-3------------------|

-Fill 1- "Yes I know what you do..." (guitars distorded)
    Am      CM
e|--0-------0----|Into Main Riff
B|--1-------1----|
G|--2-------0----|
D|--2-------2----|
A|--0-------3----|
E|---------------|
 |               |
G|---------------|
D|---------------|
A|--0-------3----|
E|---------------|

-Fill 2- "I see you run around in circles..."(Bass playes root notes for the 
most part of the rest of the song)
   G5'' A5    A5''B5     Main Riff(x2)

-RIFF 3- "When you were a child..." (guitars distorted)
   G5   B5    C5   G5  B5   C5   D5\

-Riff 4- 
  Same as Riff 3 with out D5 slide, plus-> G5  G5  B5  C5 D5\

-RIFF 5-
   G5   B5    C5   D5   E5   C5   C9    D5\
 
-Ending is same as Main Riff, ends on the Tonic-

VERSION 2 - Tabbed by CJ Minyard 

most of this song is in time, but i am not that good at tabbing out timing 
so don't blame me. just listen to the song

Tuning - Standard(EADGBe)

Intro:                                       
e|-------------------------------|
B|-------------------------------|
G|--------------0--2--0----------|
D|---------1h2-----------0h2-----|
A|---2--3---------------------3--|
E|-------------------------------|

Verse
e|--3--3-----------------------|
B|--0--0--------------3--3-----|
G|--0--0--0--2-4p2p0--0--0-----|
D|--0--0--------------2--2--0--|
A|--2--2--------------3--3--0--|
E|--3--3--------------------0--| 

Post Verse:(yes i know where you go......)                               
e|---------------------3--3--------------------------3--3-------------------|
B|---1-----1--1-----1--0--0-----------------3--3-----0--0--------------3----|
G|---2-----2--0-----0--0--0--0--2-4p2p0--0--0--0--0--0--0---0-2-4p2p0--0----|
D|---2-----2--2-----2--0--0-----------------2--2--0--0--0--------------2----|
A|---0-----0--3-----3--2--2-----------------3--3--0--2--2--------------3----|
E|---------------------3--3-----------------------0--3--3-------------------|
                                                                       
e|---------|
B|---3-----|
G|---0-----|
D|---2--0--|
A|---3--0--|
E|------0--|                 

Chorus:
e|--2-----3--2-----2--|
B|--4--1--3--4--1--3--|
G|--4--0--0--4--0--2--|
D|--4--2--0--4--2--0--|
A|--2--3--2--2--3-----|
E|--------3-----------|

Extended Chorus:
                 B                        C  
When you were a child you were happy and free
                       G
you were my reason to live
                     B
I would die if you smiled at me
             C                                D
I can still see you painting pictures on the wall
                G                   
I remember you happy I remember it all

Outro:
               B
Sunflowers in your room
               D
Sunflowers in your room
               Em
Sunflowers in your room
               B
All I want to remember
                        D
Pretty pictures on the wall
                Em
I remember you happy
               B
I remember it all
               B                     D
All I wanna remember (All I wanna remember)
D
Sunflowers In your room

Song order:

Intro
Verse
Post Verse 2x
Verse
Post Verse 2x
Chorus 1x
Verse
Post Verse 2x
Extended Chorus
Chorus 1x
verse riff 2x
Outro
Verse riff 4x

VERSION 3 - Tabbed by Steve Smith

This song has another genius little riff from Art, it isn't hard to play, but 
those types of things add so much to a song.

riff 1
e|-------------------------------------------------------
b|-------------------------------------------------------
g|--0-2--4p2-0---0-0-------------------------------------
d|---------------2-2---0-0-------------------------------
a|---------------3-3---2-2-------------------------------
e|---------------------3-3-------------------------------

Chorus
G_________________G/B
____When you were a child
_________________C
You were happy and free
___________________G
You were my reason to live
__________________G/B
I would die when you smiled at me
________C
I can still see
_________________D
I remember you painting
________________G
Sunflowers in your room

Chorus2
A_________________G/B__C
I see you run around in circles
_____________G/B__A__G
I see you diggin your own hole
_______________C____A__G
I see you fight the fights you just can't win
___________C________A
I see you losin your self control
_________________G/B_____C
What it does to me deep down inside 
_________________A
I hope you will never know

JASON'S EVERCLEAR TABS - http://members.tripod.com/~panec/