Sunshine (That Acid Summer)   
As recorded by Everclear on Slow Motion Daydream
Tabbed by Craig Johnson (navyseal1313@hotmail.com)

Standard Tuning**

(One, two, three, four)
" Oh, come on, come on, oh" 
One, Two, Three, Four

Intro
|------------------------------------|
|------------------------------------|
|-----------4-4-x-x-----------4-4-x-x|
|-4-4-4-x-x-4-4-x-x-4-4-4-x-x-4-4-x-x|
|-4-4-4-x-x-2-2-x-x-4-4-4-x-x-2-2-x-x|
|-2-2-2-x-x-2-2-x-x-2-2-2-x-x-2-2-x-x|
Ugh

Whoooo
(Whoooo)

Whoooo
(Whoooo)

|-------------|
|-------------|
|-------------|
|4-4-4-4-4-4-4|
|4-4-4-4-4-4-4|
|2-2-2-2-2-2-2| 
 Roll and tumble
 with your big heart falling

|--2---2-2-2-2-2-------|
|--2---2-2-2-2-2-------|
|--3-4-3-4-3-4-3-4-3-4-|
|--4---4---4---4---4---|
|--2---2---2---2---2---|
|--2---2---2---2---2---| 
 You roll and tumble alone

|-------------|
|-------------|
|-------------|
|4-4-4-4-4-4-4|
|4-4-4-4-4-4-4|
|2-2-2-2-2-2-2|
 You reach forever with your dirty hands holding

|--2---2-2-2-2-2-------|
|--2---2-2-2-2-2-------|
|--3-4-3-4-3-4-3-4-3-4-|
|--4---4---4---4---4---|
|--2---2---2---2---2---|
|--2---2---2---2---2---|
 You reach for something you will never know

|-------------|
|-------------|
|-------------|
|4-4-4-4-4-4-4|
|4-4-4-4-4-4-4|
|2-2-2-2-2-2-2|
 Heard ya singing in a taco bell bathroom

|--2---2-2-2-2-2-------|
|--2---2-2-2-2-2-------|
|--3-4-3-4-3-4-3-4-3-4-|
|--4---4---4---4---4---|
|--2---2---2---2---2---|
|--2---2---2---2---2---|
 I heard ya singing a cheap trick song

|-------------|
|-------------|
|-------------|
|4-4-4-4-4-4-4|
|4-4-4-4-4-4-4|
|2-2-2-2-2-2-2|
 Yeah, we sing surrender on the way to county line
 When I listen to that music
 It makes me think of summer time
 (Summer time)

|-------------|
|-------------|
|-------------|
|4-4-4-4-4-4-4|
|4-4-4-4-4-4-4|
|2-2-2-2-2-2-2|
 Yeah, that acid summer 
 We were wasted and happy
 We were laughing in the sunshine
 (Sunshine)

|------------------------------------|
|------------------------------------|
|-----------4-4-x-x-----------4-4-x-x|
|-4-4-4-x-x-4-4-x-x-4-4-4-x-x-4-4-x-x|
|-4-4-4-x-x-2-2-x-x-4-4-4-x-x-2-2-x-x|
|-2-2-2-x-x-2-2-x-x-2-2-2-x-x-2-2-x-x|
 Twist and turn
 With your bright eyes shining
 Twist and turn
 In the California sun
 Wait forever for the life that you dream of
 Wait for something that will never come

|------------------------------------|
|------------------------------------|
|-----------4-4-x-x-----------4-4-x-x|
|-4-4-4-x-x-4-4-x-x-4-4-4-x-x-4-4-x-x|
|-4-4-4-x-x-2-2-x-x-4-4-4-x-x-2-2-x-x|
|-2-2-2-x-x-2-2-x-x-2-2-2-x-x-2-2-x-x|
 Twist and turn
 In the slow motion daydream
 Twist and turn
 In your own sweet hell

 I don't get so close
 To the fire anymore
 But when I think about you now
 It makes me think of summer time
|------------------------------------|
|------------------------------------|
|-----------4-4-x-x-----------4-4-x-x|
|-4-4-4-x-x-4-4-x-x-4-4-4-x-x-4-4-x-x|
|-4-4-4-x-x-2-2-x-x-4-4-4-x-x-2-2-x-x|
|-2-2-2-x-x-2-2-x-x-2-2-2-x-x-2-2-x-x|
 Yeah, that acid summer
 We were wasted and happy
 We were laughing in the sunshine
|------------------------------------|
|------------------------------------|
|-----------4-4-x-x-----------4-4-x-x|
|-4-4-4-x-x-4-4-x-x-4-4-4-x-x-4-4-x-x|
|-4-4-4-x-x-2-2-x-x-4-4-4-x-x-2-2-x-x|
|-2-2-2-x-x-2-2-x-x-2-2-2-x-x-2-2-x-x|
 Laughing in the sunshine
 Laughing in the sunshine
 Laughing in the sunshine
 In the sunshine
|----------------2-2-2-2-2-2-2-2|
|----------------2-2-2-2-2-2-2-2|
|----------------3-3-3-3-3-3-3-3|
|4-4-4-4-4-4-4-4-4-4-4-4-4-4-4-4|
|4-4-4-4-4-4-4-4-4-4-4-4-4-4-4-4|
|2-2-2-2-2-2-2-2-2-2-2-2-2-2-2-2|
 Twist and turn
 With your bright eyes shining
 Twist and turn
 In the California sun
 Wait forever for the life that you dream of
 Wait for something that will never come
|----------------2-2-2-2-2-2-2-2|
|----------------2-2-2-2-2-2-2-2|
|----------------3-3-3-3-3-3-3-3|
|4-4-4-4-4-4-4-4-4-4-4-4-4-4-4-4|
|4-4-4-4-4-4-4-4-4-4-4-4-4-4-4-4|
|2-2-2-2-2-2-2-2-2-2-2-2-2-2-2-2|
 Twist and turn
 In a slow motion free fall
 You twist and turn
 In your own good time
|----------------2-2-2-2-2-2-2-2|
|----------------2-2-2-2-2-2-2-2|
|----------------3-3-3-3-3-3-3-3|
|4-4-4-4-4-4-4-4-4-4-4-4-4-4-4-4|
|4-4-4-4-4-4-4-4-4-4-4-4-4-4-4-4|
|2-2-2-2-2-2-2-2-2-2-2-2-2-2-2-2|
 I can't wait watch
 You twisting and turning anymore
 No, I never thought a good time
 Would turn into a lifestyle

|------------------------------------|
|------------------------------------|
|-----------4-4-x-x-----------4-4-x-x|
|-4-4-4-x-x-4-4-x-x-4-4-4-x-x-4-4-x-x|
|-4-4-4-x-x-2-2-x-x-4-4-4-x-x-2-2-x-x|
|-2-2-2-x-x-2-2-x-x-2-2-2-x-x-2-2-x-x|
 No, I just can't watch you anymore
 But, when I think about that summer time
 That always seems to make me smile
|------------------------------------|
|------------------------------------|
|-----------4-4-x-x-----------4-4-x-x|
|-4-4-4-x-x-4-4-x-x-4-4-4-x-x-4-4-x-x|
|-4-4-4-x-x-2-2-x-x-4-4-4-x-x-2-2-x-x|
|-2-2-2-x-x-2-2-x-x-2-2-2-x-x-2-2-x-x|
 Yeah, that acid summer
 We were wasted and happy
 We were laughing in the sunshine
 (Go go)
 (Whoooo)
|------------------------------------|
|------------------------------------|
|-----------4-4-x-x-----------4-4-x-x|
|-4-4-4-x-x-4-4-x-x-4-4-4-x-x-4-4-x-x|
|-4-4-4-x-x-2-2-x-x-4-4-4-x-x-2-2-x-x|
|-2-2-2-x-x-2-2-x-x-2-2-2-x-x-2-2-x-x|
 We were laughing in the sunshine
 (Go go)
 Laughing in the sunshine
 (Go go)
 Laughing in the sunshine 
 (Go go)
 Laughing in the sunshine
 (Go go)
 We were laughing in the sunshine
 (Go)
 (Go)
 (Go)
 (Go)
 
Suggestion by JR (soggypeaches@yahoo.com)

The Verse Does This

e----------------------------
b----------------------------
g-3-3-3-3-3-4-3-4-3-3--------
d-3-3-3-3-3-3-3-3-3-3--------
a----------------------------
e----------------------------

Suggestion by Will Donovan (everclear792@msn.com)
    
-----------------------------------------------------------------
-----------------------------------------------------------------
-----------------------------------------------------------------
-5-5-5--5-5-5-5-5-5-5--7-7-7/-5-5-5--5-5-5-5-5-5-5-7-7-7/-5~~----
-5-5-5--5-5-5-5-5-5-5--7-7-7/-5-5-5--5-5-5-5-5-5-5-7-7-7/-5~~----
-3-3-3--3-3-3-0-3-3-3--5-5-0/-3-3-3--3-3-3-0-3-3-3-5-5-0/-3~~----    
(now just follow Craigs tab)
 
-Will

JASON'S EVERCLEAR TABS - http://members.tripod.com/~panec/