The Color Pit
As recorded by Colorfinger on "DITHOTBITS"
Tabbed by Jason P (balaka@alpahlink.com.au)

e|---------------------------------------------------|
B|---------------------------------------------------|
G|--7-7-7\--5-5-5-5-5-5-5-5--7-7-7\--5-5-5-5-5-5-5-5-|
D|--7-7-7\--5-5-5-5-5-5-5-5--7-7-7\--5-5-5-5-5-5-5-5-|
A|--5-5-5\--3-3-3-3-3-3-3-3--5-5-5\--3-3-3-3-3-3-3-3-|
E|---------------------------------------------------|
            pm...   .....            .....   ..... 

e|----------------------------------------------------------------------|
B|----------------------------------------------------------------------|
G|--7-7-7\--5-5-5-5--7-7-7\--5-5-5-5--7-7-7\--5-5---5-5--5-5------------|
D|--7-7-7\--5-5-4-4--7-7-7\--5-5-4-4--7-7-7\--4-5---4-5--4-5------------|
A|--5-5-5\--3-3-3-3--5-5-5\--3-3-3-3--5-5-5\--3-3---3-3--3-3----5----7--|
E|------------------------------------------------------------3----5----|

Verse x2
e|----------------------------------| x3
B|---0------------------------------|
G|-----0-------0-------0-------0----|
D|-2-----2---4-------4-------4------|
A|---------6-----6\2-----2/3-----3--|
E|----------------------------------|

e|----------------------------------| 
B|---0------------------------------|
G|-----0-------0--------------------|
D|-2-----2---4-------4---4----------|
A|---------6-----6\2--/3-----5--/7--|
E|-------------------------3--/5----|
(1) You've got weeks to live....
(2) Of all my friends that overdosed

Pre-Chorus(?)
e|-----------------------------------------------------------------|
B|-----0-------0-------0-------0-------0---------------------------|
G|---0---------4-----0---------4-----0---------4-------4-----0---0-|
D|-2-----2---4-----2-----2---4-----2-----2---4-------5---------2---|
A|---------6---------------6---------------6-----6-5-----5\3-------|
E|-----------------------------------------------------------------|
You Know.. You Know..

Verse 
e|----------------------------------| x3
B|---0------------------------------|
G|-----0-------0-------0-------0----|
D|-2-----2---4-------4-------4------|
A|---------6-----6\2-----2/3-----3--|
E|----------------------------------|

e|----------------------------------| 
B|---0------------------------------|
G|-----0-------0--------------------|
D|-2-----2---4-------4---4----------|
A|---------6-----6\2--/3-----5--/7--|
E|-------------------------3--/5----|
I might not get up....

Pre Chorus
e|-----------------------------------------------------------------|
B|-----0-------0-------0-------0-------0---------------------------|
G|---0---------4-----0---------4-----0---------4-------------------|
D|-2-----2---4-----2-----2---4-----2-----2---4-----7-7-6-7-9-7-6-7-|
A|---------6---------------6---------------6-----6-5-5-5-5-5-5-5-5-|
E|-----------------------------------------------------------------|
You Know.. You Know..

e|-----------------------------------------| x3
B|-----------------------------------------|
G|---5-5-5-5--5-5-5-5--5-5-5-5--5-5--7-7\--|
D|---5-5-5-5--4-4-4-4--5-5-5-5--4-4--7-7\--|
A|---3-3-3-3--3-3-3-3--3-3-3-3--3-3--5-5\--|
E|-----------------------------------------|
You know.. You Know.. Can't you see it's killing me...

e|--------------------------------------| 
B|--------------------------------------|
G|---5-5-5-5--5-5-5-5--5-5-5-5----------|
D|---5-5-5-5--4-4-4-4--5-5-5-5----------|
A|---3-3-3-3--3-3-3-3--3-3-3-3---5---7--|
E|-----------------------------3---5----|
I'm not gonna walk back into the pit...

Verse x2
e|----------------------------------| x3
B|---0------------------------------|
G|-----0-------0-------0-------0----|
D|-2-----2---4-------4-------4------|
A|---------6-----6\2-----2/3-----3--|
E|----------------------------------|

e|----------------------------------| 
B|---0------------------------------|
G|-----0-------0--------------------|
D|-2-----2---4-------4---4----------|
A|---------6-----6\2--/3-----5--/7--|
E|-------------------------3--/5----|
(1) I'm not gonna play you game
(2) I don't wanna see...

Pre Chorus
e|-----------------------------------------------------------------|
B|-----0-------0-------0-------0-------0---------------------------|
G|---0---------4-----0---------4-----0---------4-------------------|
D|-2-----2---4-----2-----2---4-----2-----2---4-----7-7-6-7-9-7-6-7-|
A|---------6---------------6---------------6-----6-5-5-5-5-5-5-5-5-|
E|-----------------------------------------------------------------|
You Know.. You Know.. You don't wanna talk about it...

e|-----------------------------------------| x11
B|-----------------------------------------|
G|---5-5-5-5--5-5-5-5--5-5-5-5--5-5--7-7\--|
D|---5-5-5-5--4-4-4-4--5-5-5-5--4-4--7-7\--|
A|---3-3-3-3--3-3-3-3--3-3-3-3--3-3--5-5\--|
E|-----------------------------------------|

e|----------------------------------| 
B|----------------------------------|
G|---5-5-5-5--5-5-5-5--5-x----------|
D|---5-5-5-5--4-4-4-4--5-x----------|
A|---3-3-3-3--3-3-3-3--3-x----------|
E|----------------------------------|
I'm not gonna walk back into the pit for you

e|------0--------3---------|
B|-------------------------|
G|---0--------4-----0-0-0--|
D|-2------2\5--------------|
A|-----------------3---5-3-|
E|-------------------3-----|

e|------0--------3-------------|
B|-------------------------7---|
G|---0--------4-----0-0-0------|
D|-2------2\5------------------|
A|-----------------3---5-7--\3-|
E|-------------------3---------|

JASON'S EVERCLEAR TABS - http://members.tripod.com/~panec/