The Honeymoon Song (bass)
As recorded by Everclear on SFAAM#1
Tabbed by Will Donovan (everclear792@msn.com) 
 
Intro
-5--5/3--3/2--2/1--1/5-------------------------------------------
------------------------5-3-1------------------------------------
------------------------------3--3--3/1--1/0----------3--------3-  hold last note
----------------------------------------------5/4--4-----3-1-0---

Chorus
----------------------------              -------------------------------------------------
----------------------------              -------------------------------------------------
---------------3-3-3--7-5-3-  X2, then---------------3-3-3-----------------------3-3-3-
-1-1-1--3-3-3---------------             -1-1-1--3-3-3---------1-1-1--1-1-1--3-3-3--------

--------------------------------------------------------
--------------------------------------------------------
-3-3-3--1-1-1----------------3-3-3---------3-3-3--3-3-3-
---------------5-5-5--4-4-4---------3-1-0---------------

JASON'S EVERCLEAR TABS - http://members.tripod.com/~panec/