The Joker
As recorded by Everclear on the "Sisters for the Roadside Cafe" benefit album
Tabbed by Patrick McFadden (JackSexy11@cs.com) and Jason P (jasonsevercleartabs@hotmail.com)

VERSION 1 - Tabbed by Jason P

The Bass goes like this
G|----------------------------------------|
D|---------------0-2-0-0------------------|
A|-----0-2-3-3-----------0-2-3-3-3-3-2-0--|
E|-3-3------------------------------------|

The Guitar Chords are G C D C, 
Singularly strummed in the Verse,
Jammed on for a bit longer in the Chorus. 

VERSION 2 - Tabbed by Patrick McFadden 

The Bass goes:

G|-----------------------------------------------| 
D|-------------0200------------------------------| 
A|--------233--------0033332222------------------| 
E|---33--3---------------------------------------|

Repeats through whole song

End on a G

Think you can handle that?

Suggestion by Paul Loftus (bluemoviedrivethru@hotmail.com)

Jason!!
Hey Man, Cool Tabs.
I saw Everclear in Washington this year for 3 dollars (which fucking ruled!!!), at the start Art's Amp 
wouldn't work so Greg and Craig played "the Joker". 
So... Here is the Tab....

G ------------------------------------------------------------------------
D ------------------------------------------------------------------------
A ----------1-1-1---3h5p3-3---------1-1-1-1-0-0-0-0----------
E  --0h1------------------------3-3-------------------------1-1------

That's the whole song. You will kick yourself when you find out how easy it is. Email me back on how the Tab works. later.
Paul (lead singer and guitarist for "Blue Movie Drive Thru")

JASON'S EVERCLEAR TABS - http://members.tripod.com/~panec/