Trust Fund (bass)
As recorded by Everclear on "World of Noise" LP
Tabbed by Marty O'Malley (Bassistwithoutcause@everclearfanatic.com)

intro:
G|-----------------------------|
D|-----------------------------|
A|-----------------------------|
E|-5-5---5-5---8---5-5---5-5---|  cut to verse 1

verse 1:
G|-----------------------------------------------------|
D|-----------------------------------------------------|
A|-----------------------------------------------------|
E|-0-5-5----0-5-5----0-5-5----0-6-7-6-7-----5-5--0-5-5-| etc etc

chorus:
G|----------------------------------------------|
D|----------------------------------------------|
A|-3-3-3-3---5-5-5-5----7-7-7-7-7-7-7-7-7-7-7---|
E|----------------------------------------------|

next part:"just get it if you need it now"
G|------------------------------------------------------------------------|
D|------------------------------------------------------------------------|
A|--8-8-8-8-8--8---5-5-5-5---3-3-3-3-----4-4-4-4-4--4--2-2-2-2--0-0-0-0---|
E|------------------------------------------------------------------------|

G|------------------------------------------------------------------------|
D|------------------------------------------------------------------------|
A|------------------------------------------------------------------------|
E|--7-7-7-7-7--7---5-5-5-5---3-3-3-3-----4-4-4-4-4--4--2-2-2-2--0-0-0-0---|

verse 2:
G|-------------------------------|
D|--------3------------3---------|
A|---------------3--------4h5----|
E|---3-3----3-3----3-3-----------|

Bridge: (possible distortion)
G|----------------------|
D|----------------------|
A|----------------------|
E|--5-5---5-5--8--5-5---| etc etc

Ending part after last chorus:
G|-----------|
D|-----------|
A|-----------|
E|--3-4-3-2--|

JASON'S EVERCLEAR TABS - http://members.tripod.com/~panec/