The Twistinside
As recorded by Everclear from the Album "Sparkle and Fade"
Tabbed by Wes Dolezal (Wesley@pop.skyenet.net) and Steve Smith (sesmith3@eos.ncsu.edu)

VERSION 1 - Tabbed by Wes Dolezal 

Out of all the different versions of this song, this is the closest by
far. I spent a lot of time on this song and tabbed out all the lead.
Any ?s or comments; e-mail me.

e|---6-----6-----6-----6-|---10-------10------10------10----|
B|------8-----------8----|-------12-------12--------------12|
G|-0----------0----------|-0-----------------------0--------|
D|-----------------------|----------------------------------|
A|-----------------------|----------------------------------|
E|-----------------------|----------------------------------|
  Intro.  (clean)      2x                                2x

e|-10--10--10--10--10\-3--3--3/-5--5--5--5--5---3--3--3/----|
B|-12--12--12--12--12\-5--5--5/-7--7--7--7--7---5--5--5-/---|
G|----------------------------------------------------------|
D|----------------------------------------------------------|
A|----------------------------------------------------------|
E|----------------------------------------------------------|
  Verse 1.  (clean)                         repeat 4x

e|--/10-10-10-10-10\-3--3--3/-5--5--5--5--5---3--3--3-------|
B|--/12-12-12-12-12\-5--5--5/-7--7--7--7--7---5--5--5-------|
G|----0--0--0--0--0--0--0--0--0--0--0--0--0---0--0--0-------|
D|----0--0--0--0--0--0--0--0--0--0--0--0--0---0--0--0-------|
A|----------------------------------------------------------|
E|----------------------------------------------------------|
      I'm gonna get a new tattoo...          repeat 4x

e|--3--3--3--3--3--3--3--3---10--10-10-10---8--8--8--7--7--7|
B|--4--4--4--4--4--4--4--4---12--12-12-12--10-10-10--8--8--8|
G|--0--0--0--0--0--0--0--0----0---0--0--0---0--0--0--0--0--0|
D|--0--0--0--0--0--0--0--0----0---0--0--0---0--0--0--0--0--0|
A|----------------------------------------------------------|
E|----------------------------------------------------------|
       Breathing fire.....

e|--3---3---3---3---3---3---3---3---2-----------------------|
B|--4---4---4---4---4---4---4---4---3-----------------------|
G|--0---0---0---0---0---0---0---0---0-----------------------|
D|--0---0---0---0---0---0---0---0---0-----------------------|
A|----------------------------------------------------------|
E|----------------------------------------------------------|
      Neither does anything else we do....

e|------10-10-10-10-10-10--5--5--5--5---7--7--7--7--7--5--5--5-|
B|------12-12-12-12-12-12--5--5--5--5---7--7--7--7--7--5--5--5-|
G|-------0--0--0--0--0--0--0--0--0--0---0--0--0--0--0--0--0--0-|
D|-------0--0--0--0--0--0--0--0--0--0---0--0--0--0--0--0--0--0-|
A|-------------------------------------------------------------|
E|-------------------------------------------------------------|
 1.Got to get ready for the real world.....       repeat

e|----------3--------------5------------7--------------5-----|
B|-------------3--------------5------------7--------------5--|
G|-----------------------------------------------------------|
D|-----------------------------------------------------------|
A|-----------------------------------------------------------|
E|-----------------------------------------------------------|
   fill. 1

e|---------10-10-10-10-10--5--5--5--5--7--7--7--7--7--8--8--8-|
B|---------12-12-12-12-12--5--5--5--5--7--7--7--7--7--8--8--8-|
G|----------0--0--0--0--0--0--0--0--0--0--0--0--0--0--0--0--0-|
D|----------0--0--0--0--0--0--0--0--0--0--0--0--0--0--0--0--0-|
A|------------------------------------------------------------|
E|------------------------------------------------------------|
  got to grow up......

e|----------3--------------5-----------7--------------8-------|
B|-------------3--------------5-----------7--------------8----|
G|------------------------------------------------------------|
D|------------------------------------------------------------|
A|------------------------------------------------------------|
E|------------------------------------------------------------|
   fill. 2                                 repeat as needed.

e|-----10-----10------10------10------10------10------10------10--10\-|
B|--12----12------12------12------12------12------12------12------12\-|
G|--------------------------------------------------------------------|
D|--------------------------------------------------------------------|
A|--------------------------------------------------------------------|
E|--------------------------------------------------------------------|
   I don't want to die..... The background guitar is just G5 A5 B5 and
C5 pm'ed
e|-------------------------------------------------------------------------|
B|-------------------------------------------------------------------------|
G|-8--8--8--8---8--8--8--8--------------------------8--8--8--8--8--8--8----|
D|-8--8--8--8---8--8--8--8--5--5--5--5--5--5--5--5--8--8--8--8--8--8--8--8-|
A|-6--6--6--6---6--6--6--6--5--5--5--5--5--5--5--5--6--6--6--6--6--6--6--6-|
E|--------------------------3--3--3--3--3--3--3--3-------------------------|
   I konw the secret of your soul........

e|------------------------------------------------------------------------|
B|------------------------------------------------------------------------|
G|-7-------------11-------------------------------------------------------|
D|-7----------12-----5--5--5--5--7--7--7--7--9--9--9--9--7--7--7--7-------|
A|-5-------12--------5--5--5--5--7--7--7--7--9--9--9--9--7--7--7--7-------|
E|------10-----------3--3--3--3--5--5--5--5--7--7--7--7--5--5--5--5-------|
       Yeah,man we got to grow up.........

e|----------------------------------------------------------------------|
B|----------------------------------------------------------------------|
G|----------------------------------------------------------------------|
D|-5---5---5---5---7---7---7---7---9---9---9---9--10--10--10--10---5----|
A|-5---5---5---5---7---7---7---7---9---9---9---9--10--10--10--10---5----|
E|-3---3---3---3---5---5---5---5---7---7---7---7---8---8---8---8---3----|
            Yeah, we got to grow up.

e|-----------------------------------|-------------------------------------|
B|------------8-8-9-8----------------|-12\---------------------------------|
G|--------4-4-8-8-8-8--7-7--9-10--9--|-12\-0--2-3/5-3-2-3--0--2-3-0-2-3--0-|
D|--------5-5-8-8-8-8--x-x--x--x--x--|-------------------------------------|
A|--------5-5-6-6-6-6--8-8-10-10-10--|-------------------------------------|
E|--------3-3----------6-6--8--8--8--|-------------------------------------|
     GO!   Rhy.for most of the end                        lead pt. 1    2x

e|--------------------------------------------------|---------------------|
B|----------------6-6-6-6-6-6-6-6-6-6-6-6-6/8-8-8-8\|-6-6-6-6----6-6-6-6--|
G|-2--3/5--3-2-3--7-7-7-7-7-7-7-7-7-7-7-7-7/9-9-9-9\|-7-7-7-7----7-7-7-7--|
D|----------------0-0-0-0-0-0-0-0-0-0-0-0-0-0-0-0-0-|-0-0-0-0----0-0-0-0--|
A|--------------------------------------------------|---------------------|
E|--------------------------------------------------|---------------------|
                                               2x      i dont   wanna.
(lead 2)
e|-------------------------|----------------------------------------------|
B|-6-6-6-6-6/8-8-8-8-8-8-8-|-14----13-------14----13-------14----13-------|
G|-7-7-7-7-7/9-9-9-9-9-9-9-|----15----15-15----15----15-15----15----15-15-|
D|-0-0-0-0-0-0-0-0-0-0-0-0-|----------------------------------------------|
A|-------------------------|----------------------------------------------|
E|-------------------------|----------------------------------------------|
                        2x        Pick it up. rhy. G5 D#5 A#5 C5
(repeat)

e|-/-13-13-13-13-13-13-13-13|-13-13-13-13-15-15-15-15--3---3---5---5-|
B|-/-15-15-15-15-14-14-14-14|-15-15-15-15-17-17-17-17----3---3---3---|
G|----0--0--0--0--0--0--0--0|--0--0--0--0--0--0--0--0----------------|
D|--------------------------|----------------------------------------|
A|--------------------------|----------------------------------------|
E|--------------------------|----------------------------------------|
                      2x

e|----6-----6-----5-----5----|------------------------------------------|
B|-3-----3-----3-----3-----3-|-2-2-2-2-2-2-2-3-3-3-3-3-3-3-3----7-------|
G|---------------------------|----------------------------------6-------|
D|---------------------------|----------------------------------0*------|
A|---------------------------|------------------------------------------|
E|---------------------------|------------------------------------------|
       repeat as needed        I can't take it           *do lead 2 again.

e|-------------------------|-3-----3------5--4--5--6-----6-----5-----5---|
B|-14----14-14-14-14-14\---|----3-----3---------------3-----3-----6------|
G|-15----16-16-16-16-16\---|---------------------------------------------|
D|--0-----0--0--0--0--0----|---------------------------------------------|
A|-------------------------|---------------------------------------------|
E|-------------------------|---------------------------------------------|
   24x                     now come on!                    5 or 6x

e|-15-14-12-----------|-15-14-12---------------|
B|----------15-12--14-|----------15-12--14b15--|
G|--------------------|------------------------|
D|--------------------|------------------------|
A|--------------------|------------------------|
E|--------------------|------------------------|

e|---3--------|
B|---3--------|
G|---0--------|
D|---0--------|
A|-------3---0|
E|-3---1---2--|
           3x

  If you would like me to try and tab a song just e-mail me.

VERSION 2 - Tabbed by Steve Smith

This song is probably my favorite to play because it has so many neat riffs in it...

intro
e|----6-----6-----6-----6-----6------6------6--------6-------
b|-------8------------8------------8---------------8---------
g|-0-----------0------------0-------------0------------------
d|-----------------------------------------------------------
a|-----------------------------------------------------------
e|-----------------------------------------------------------

repeat next part twice
e|----10---------10----10-----------10------------------------
b|--------12---------12-------------------12------------------
g|-0------------------------------0---------------------------
d|------------------------------------------------------------
a|------------------------------------------------------------
e|------------------------------------------------------------

verse1
e|---10-10-10-10--3-3-3-3--5-5-5-5--3-3-3-3----
b|---12-12-12-12--5-5-5-5--7-7-7-7--5-5-5-5----
g|---------------------------------------------
d|---------------------------------------------
a|---------------------------------------------
e|---------------------------------------------

bridge
e|33333333-10101010--8--8--8-777-333333---2-
b|44444444-12121212-10-10-10-888-444444---3-
g|------------------------------------------
d|------------------------------------------
a|------------------------------------------
e|------------------------------------------

play the bridge over the words
"breathing fire doesnt lok good on a resume, neither does anything else we do"

verse2
e|---10-10-10-5-5-5-5-7-7-7-7-5-5-5-5----
b|---12-12-12-5-5-5-5-7-7-7-7-5-5-5-5----
g|---------------------------------------
d|---------------------------------------
a|---------------------------------------
e|---------------------------------------

e|--10-10-10-10-5-5-5-5-7-7-7-7-8-8-8-
b|--12-12-12-12-5-5-5-5-7-7-7-7-8-8-8-
g|------------------------------------
d|------------------------------------
a|------------------------------------
e|------------------------------------

then the next bridge
"I just wanna die with you..."
e|----10----10----10----10----10----10----10----10---
b|-12----12----12---12----12-----12----12----12------
g|---------------------------------------------------
d|---------------------------------------------------
a|---------------------------------------------------
e|---------------------------------------------------

pre-chorus
"yeah man we gotta grow up..."
play part for verse1

"na na na na____"
chords:(w/dist) G Eb Bb C
repeat chords several times, then:

SOLO:

b|--------------------------------------------------
g|--0--2--3--3/5--3--2--3----0--2--3--3/5--3--2--3--

b|-----------------------------------------------
g|--0--2--3--0----2--3--0----2--3--3/5--3--2--3--

riff1
e|---------------------------------------
b|-----6-6-6-6-6-6-6-6-6-6/8-8-8-8-------
g|-----7-7-7-7-7-7-7-7-7-7/9-9-9-9-------
d|---------------------------------------
a|---------------------------------------
e|---------------------------------------

riff2 (repeat several times)
e|--------------------------------------------------
b|-14--13-----14--13-------14--13-------------------
g|---------15------------15------------15-----------
d|--------------------------------------------------
a|--------------------------------------------------
e|--------------------------------------------------

play riff1 again

then
e|----3-----3------5------5-----6------6----5----5-----
b|-------3------3------3------3-----3-----3----3----3--
g|-----------------------------------------------------
d|-----------------------------------------------------
a|-----------------------------------------------------
e|-----------------------------------------------------

then "I cant take it! I cant take it"
e|-------------------------------------------------
b|--2--2--2--2--2--2--2--2--3--3--3--3--3--3--3--3-

then play riff1 with appropriate pauses

outro:
e|-15-14-12------------15-14-12----------15-14-12---------------
b|----------------14-15----------------15-14-------------15-14b-
g|--------------------------------------------------------------
d|--------------------------------------------------------------
a|--------------------------------------------------------------
e|--------------------------------------------------------------

questions? comments? 
sesmith3@eos.ncsu.edu 

Suggestion by Dirt (blind735@up2me.com)

the "i know the secret of your soul" part
i think the first chord is this(see below)and if not i think it sounds good
e|--3-
B|--4-
G|--3-        or a c shaped barrchord in ur terms
D|--5-
A|--6-
E|--x-
 

JASON'S EVERCLEAR TABS - http://members.tripod.com/~panec/