"The Twistinside" (Bass)
As recorded by Everclear on "Sparkle & Fade"
Tabbed by Ashton Bailey (ashton_bailey@hotmail.com)

   Intro
G|-----------------------------------|
D|-----------------------------------|
A|--2-2-2-2--------------------------|
E|----------0-0-0-0-2-2-2-2-0-0-0-0--|
       B       Em      F#      Em

   Interlude
G|-------------------------------------------------|
D|-------------------------------------------------|
A|--2--2--2--2--0-0-0-0------------------------2~--|
E|----------------------4-4-4-4-2-2-2-2--0~--------|
        B          A      Ab     F#      Em    B

   Chorus
G|-----------------------------------|
D|-----------------------------------|
A|-----------------------------------|
E|--3-3-3-3-5-5-5-5-7-7-7-7-8-8-8-8--|
       G       A       B       C

   Bridge
G|-----------------------------|
D|-----------------------------|
A|------6-7-6-7----------------|
E|--3-3---------6-6-6-8-9-8-9--|
     G Eb F Eb F Bb C Db C Db

   Outro
G|---------------|
D|---------------|
A|--------3---0--|
E|--3-3-1---2----|

JASON'S EVERCLEAR TABS - http://members.tripod.com/~panec/