"Volvo Driving Soccer Mom" (bass)
As Performed by Everclear live on Tour, will be on "Slow Motion Daydream"
Tabbed By Copper (CopperForever@aol.com) 

Intro/Verse:
G-------------------------------
D-------------------------------
A-------------------------------
E-/8-8------5-5------3-3----1-1-
Really used to be a bad girl...
Na na Na na Na na Na na Na na

G--------------------
D--------------------
A--------------------
E-00000000-1111-3333-
But now I am a volvo driving soccer mom
But now I know my right wing from my wrong

The Final, different part:
Guitar plays alone, then bass slides in...
G------------------------------------------
D------------------------------------------
A---------88888888----------------88888888-
E/88888888--------1010101010101010--------- <--those are tens
Where do all the porn stars go?  When the lights go down?

G----------------------------------------------
D----------------------------------------------
A---------88--88--66--------------88--88-------
E-88--88------------1010--1010----------1010--- <--tens

G------------------------------------------------------
D------------------------------------------------------
A---------88--88-66--------------88--88--------------8-
E-88--88-------------1010--1010----------1010-10*-10*--
I think i know...                             they all... 
(*play this 4 times)

JASON'S EVERCLEAR TABS - http://members.tripod.com/~panec/