Walk Don't Run
As recorded by Everclear on "Everything to Everyone" AUS single
Tabbed by Hugh Yik (hyik@nb.sympatico.ca) and Jason P (jasonsevercleartabs@hotmail.com)

Key
/ slide towards bridge (up the frets)
\ Slide towards neck (down the frets)
rake - pick slide towards neck 

Backing Riff  
(0:03)
    Am       G        F        E
e|--------------------------------------|  x2 (no muting before lead 
B|--------------------------------------|      starts,then all chords
G|--5-5-5-5--4-4-4-4--2-2-2-2--1-1-1-1--|      are palm muted unless 
D|--7-7-7-7--5-5-5-5--3-3-3-3--2-2-2-2--|      indicated as the lead 
A|--7-7-7-7--5-5-5-5--3-3-3-3--2-2-2-2--|      guitar plays over it)
E|--5-5-5-5--3-3-3-3--1-1-1-1--0-0-0-0--|

Lead guitar
(0:09)
       Am    G     F     E       Am    G     F     E      C5
e|------------------------------------------------------------------|
B|-r\--------------------1--0---------------------------------------|
G|-a\-\2-------------0-2---------2-------------0-2-0----------------| 
D|-k\----------0-2-3---------------------0-2-3-------3----2-0-2b----|
A|-e\----0-2-3---------------------0-2-3----------------------------|
E|------------------------------------------------------------------|

				    E
e|------------------------------------------|
B|------------------------------------------| 
G|-----------------------0--1-1-1-1-1-1-1-1-|
D|--0-2-3-2-0----0h2---2-2--2-2-2-2-2-2-2-2-|
A|-------------3-----3----------------------|
E|------------------------------------------|

(0:21)
    Am    G     F     E       Am    G     F     E      C5
e|---------------------------------------------------------------|
B|--------------------1--0---------------------------------------|
G|--2-------------0-2---------2-------------0-2-0----------------| 
D|----------0-2-3---------------------0-2-3-------3----2~--------|
A|----0-2-3---------------------0-2-3----------------------------|
E|---------------------------------------------------------------|
                            (0:32)
   				    (No Chord)       C
e|------------------------------------------------0-0-0-|
B|------------------------------------------------1-0-1-| 
G|----------------------------------------0--0~---------|
D|--0-2-3-2-0----0h2---2------------0-2-3---------------|
A|-------------3-----3---3----0-2-3---------------------|
E|--------------------------3---------------------------|
	   		 	     (0:39)
     Am                       F           E            Am   
e|----------------------------1-----1-----0-----0-------------------|
B|-1-1-1-1-1/13-13-13-13\--0----1-----1-----0-----0----1-----1------|
G|-0-2-2-2-2/14-14-14-14\--0------2-----2-----1-----1----2-----2----|
D|---------------------------------------------------------2-----2--|
A|------------------------------------------------------------------|
E|------------------------------------------------------------------|
    Am   G    F    E
e|---------------------|  
B|---------------------|       
G|---------------------|            
D|---------------------|           
A|--7-7--5-5--3-3--2-2-| 
E|---------------------| 
   (0:46)
    Am    G     F     E       Am    G     F     E      C5  
e|---------------------------------------------------------------|
B|--------------------1--0---------------------------------------|
G|--2-------------0-2---------2-------------0-2-0----------------| 
D|----------0-2-3---------------------0-2-3-------3----2-0-2b----|
A|----0-2-3---------------------0-2-3----------------------------|
E|---------------------------------------------------------------|
                         (0:57)
                          (no chord)    
e|--------------------------------------------------8--3-|
B|------------------------------0-1-3-5b-(let ring ------| 
G|--------------------------0-2------------with ---------|
D|--0-2-3-2-0----0h2-2----2---------------feedback)------|
A|-------------3-------3---------------------------------|
E|-------------------------------------------------------|
    (1:04, NO MUTING ON THE CHORDS IN THIS SECTION) 
     Am    G    F      E       Am     G    F    E  
e|--------------0--3-3-0----------------------------|  
B|-----------------------3-1p0-------------------r\-|
G|-----------------------------2-----------------a\-|
D|-----------------------------------------------k\-|
A|-----------------------------------------------e\-|
E|--------------------------------------------------|
   (1:10, PALM MUTING ON CHORDS AGAIN)
   Am    G     F     E       Am    G     F     E      C5
e|--------------------------------------------------------------|
B|-------------------1--0---------------------------------------|
G|-2-------------0-2---------2-------------0-2-0----------------| 
D|---------0-2-3---------------------0-2-3-------3----2-0-2b----|
A|---0-2-3---------------------0-2-3----------------------------|
E|--------------------------------------------------------------|
				    E	
e|------------------------------------------|
B|------------------------------------------| 
G|-----------------------0--1-1-1-1-1-1-1-1-|
D|--0-2-3-2-0----0h2---2-2--2-2-2-2-2-2-2-2-|
A|-------------3-----3----------------------|
E|------------------------------------------|
   (1:21)
   Am    G     F     E       Am    G     F     E      C5
e|--------------------------------------------------------------|
B|-------------------1--0---------------------------------------|
G|-2-------------0-2---------2-------------0-2-0----------------| 
D|---------0-2-3---------------------0-2-3-------3----2-0-2b----|
A|---0-2-3---------------------0-2-3----------------------------|
E|--------------------------------------------------------------|
                            (1:32)
                            (no chord)       C5
e|------------------------------------------------0-0-0-|
B|------------------------------------------------1-0-1-| 
G|----------------------------------------0--0~---------|
D|--0-2-3-2-0----0h2---2------------0-2-3---------------|
A|-------------3-----3---3----0-2-3---------------------|
E|--------------------------3---------------------------|
                             (1:40)
     Am                       F           E            Am     
e|----------------------------1-----1-----0-----0-------------------|
B|-1-1-1-1-1/13-13-13-13\--0----1-----1-----0-----0----1-----1------|
G|-0-2-2-2-2/14-14-14-14\--0------2-----2-----1-----1----2-----2----|
D|---------------------------------------------------------2-----2--|
A|------------------------------------------------------------------|
E|------------------------------------------------------------------|
    Am   G    F   E
e|---------------------| 
B|---------------------|       
G|---------------------|            
D|---------------------|            
A|--7-7--5-5--3-3--2-2-|
E|---------------------|
  (1:46)
   Am    G     F     E       Am    G     F     E      C5
e|--------------------------------------------------------------|
B|-------------------1--0---------------------------------------|
G|-2-------------0-2---------2-------------0-2-0----------------| 
D|---------0-2-3---------------------0-2-3-------3----2-0-2b----|
A|---0-2-3---------------------0-2-3----------------------------|
E|--------------------------------------------------------------|
                           (1:56)
e|--------------------------3-3-3-\-|
B|--------------------------5-5-5-\-| 
G|--------------------------5-5-5-\-|
D|--0-2-3-2-0----0h2---2----5-5-5-\-|
A|-------------3-----3---3--3-3-3-\-|
E|----------------------------------|

JASON'S EVERCLEAR TABS - http://members.tripod.com/~panec/