What Do I Get?
As recorded by Everclear on the "Everything to Everyone" AUS single
Tabbed by Jason P (jasonsevercleartabs@hotmail.com), based on the OLGA tab

/ - slide down \-slide up
F is an 1st fret E shape barre chord
f is an 8th fret A shape barre chord

The intro is a C chord, then at the end of it a fast pick slide down the neck of the guitar

C                        F   G              C       
I just want a lover like any other, what do I get?
C                        F   G              C       
I only want a friend who'll stay to the end, what do I get?

        G#    
What do I get?
G                C
Who-oh,  what do I get?
        G#
What do I get?
G                C
Who-oh,  what do I get?

I'm in distress, I need a caress, what do I get?
I'm not on the make,  I just need a break what do I get?

What do I get?
Who-oh,  what do I get?
What do I get?
Who-oh,  what do I get?

Bridge:
F                    G
I only get sleepless nights
C     Bb         F          G
Alone here in my half empty bed
F                    G
For others things turn out right 
C      Bb          F         G
I wish they'd only happen to me instead

Chorus 

solo  
e|-----------------------------------------------------------------------|
B|--0h1--1--1--1---1\3--3--3--1--3--1--1---------1--1--1--1---1\3--3--3--|
G|-----------------------------------------------------------------------|
D|-----------------------------------------------------------------------|
A|-----------------------------------------------------------------------|
E|-----------------------------------------------------------------------|

e|-----------------------------------------------------------------------|
B|--1--3--1--1p0h1----------1--3--3--1--1----4--3--3--3--1--3--1--1p0h1--|
G|-----------------------------------------------------------------------|
D|-----------------------------------------------------------------------|
A|-----------------------------------------------------------------------|
E|-----------------------------------------------------------------------|

e|-----------------------------------------------------------------------|
B|---------1--3--3--1--1----4--3--3--3--1--3--1--pick slide--------------|
G|-----------------------------------------------------------------------|
D|-----------------------------------------------------------------------|
A|-----------------------------------------------------------------------|
E|-----------------------------------------------------------------------|

Bridge (same as before)

Chorus (same as before)

(drums only)                                       f   C       
I just want a lover like any other, what do I get?
C                        F   G              C               f    C
I only want a friend who'll stay to the end, what do I get?

Riff:
e|--8-----8-----8-----8-----| etc. played throughout the rest of the song,
B|o----8-----8-----8-----8-o|      until "Nothing at all, at all" when it
G|--------------------------|	     changes as transcribed below.
D|--------------------------|
A|o------------------------o|
E|--------------------------|

Chorus (same as before except with the above riff played over it)

Well let me tell you now,

D  f  B  C x2

        D   f  B  C
What do I get?
What do I get?
What do I get?
What do I get?	No love
What do I get?	No sleep at night
What do I get?  Nothing that's nice
What do I get?  Nothing at all, at all, at all...

(played over "nothing at all, at all....")
e|--8-----7-----6-----5-----4-----3-----2-----1------8-----8--10--| 
B|-----8-----7-----6-----5-----4-----3-----2-----1------8---------|      
G|----------------------------------------------------------------|	     
D|----------------------------------------------------------------|
A|----------------------------------------------------------------|
E|----------------------------------------------------------------|
                                                 

JASON'S EVERCLEAR TABS - http://members.tripod.com/~panec/