White Noise
As recorded by Everclear on Slow-Motion Daydream 
Tabbed by Hugh Yik (mmhsteam@hotmail.com)

* = play 8 times 

-INTRO- 
              B      Eii  Ab    Eii 
e|-----------|-----------------------|repete 
B|-----------|-----------------------| 
G|-----------|---------9-9-------9-9-| 
D|-----------|-----9-9-9-9-6-6-6-9-9-| 
A|-------4/9-|-9  -9-9-7-7-6-6-6-7-7-| 
E|-------2/7-|-7**-7-7-----4-4-4-----| 
Pm...........                        | 
e|-\7-7-7-7-7-7-7--------------------| 
B|-\x-x-x-x-x-x-x--------------------| 
G|-\4-4-4-4-4-4-4--------------------| 
D|-----------------------------------| 
A|-----------------------------------| 
E|-----------------------------------| 
PM................ 
    
  B       Eii  Ab 
e|-----------------------------| 
B|-----------------------------| 
G|---------9-9-----------------| 
D|-----9-9-9-9-6-6-6-6-6-6-6-6-| 
A|-9  -9-9-7-7-6-6-6-6-6-6-6-6-| 
E|-7**-7-7-----4-4-4-4-4-4-4-4-| 
Pm.... 


-CHORUS- 
   Gb E   B       Eii     Ab      Eii 
e|----------------------------------------| 
B|----------------------------------------| 
G|-----------------9-9-9-----------9-9-9--| 
D|--4 -2 --9-9-9-9-9-9-9---6-6-6-6-9-9-9--| 
A|--4 -2 --9-9-9-9-7-7-7---6-6-6-6-7-7-7--| 
E|--2*-0*--7-7-7-7---------4-4-4-4--------|   

-then end with- 
   Gb E 
e|--------| 
B|--------| 
G|--------| 
D|--4 -2--| 
A|--4 -2--| 
E|--2*-0--| 



-VERSE- 
   B       Eii     Ab      Eii 
e|---------------------------------| 
B|---------------------------------| 
G|----------9-9-9-----------9-9-9--| 
D|--9-9-9-9-9-9-9---6-6-6-6-9-9-9--| 
A|--9-9-9-9-7-7-7---6-6-6-6-7-7-7--| 
E|--7-7-7-7---------4-4-4-4--------| 


-OUTRO-("Catch you, when you fall down!" 
   B        Gb      Ab       E 
e|-------------------------------------| 
B|-------------------------------------| 
G|-------------------------------------| 
D|--9-9-9-9--4-4-4---6-6-6-6--2-2-2----| 
A|--9-9-9-9--4-4-4---6-6-6-6--2-2-2----| 
E|--7-7-7-7--2-2-2---4-4-4-4--0-0-0----| 

JASON'S EVERCLEAR TABS - http://members.tripod.com/~panec/