When It All Goes Wrong Again (bass)
As recorded by Everclear on "SFAAM #2: Good Time for a Bad Attitude"
Tabbed by Joe (FleetadmJw1@cs.com) and Will Donovan (everclear792@msn.com)

VERSION 1 - Tabbed by Joe

Tuning 1/2 Steps Down. Eb Ab Gb Db
note: Craig Plays It This Way, but You Could easily play it in 
standard tuning, just play 1/2 step down (ie. one fret down) than written!

Verse:
Gb|---------------------------------------------------------------------------|
Db|---------------------------------------------------------------------------|
Ab|---------------------------------------------------------------------------|
Eb|-1---1-/-3---3---3---1---1-/-3---3---3---1---7---7---7---7---8---8---8---8-|

Change Part, Near The Middle:
Gb|-------------------------------------------------------------|
Db|-------------------------------------------------------------|
Ab|---(-----Guitar Plays-----)----------------------------------|
Eb|---(-The-First-Few--Times-)--3---3---3---3---3---3---3---3---|

Then This Interlude Type Part:
Gb|---------------------------------------------------------------------------|
Db|---------------------------------------------------------------------------|
Ab|---2---2---2---2----3---3---3---3----2---2---2---2----3---3---3---3--------|
Eb|---------------------------------------------------------------------------|

Outro:
Gb|-----------------------------------------------------------------|
Db|-----------------------------------------------------------------|
Ab|-----------------------------------------------------------------|
Eb|----1-/-3---3---3---1---1-/-3---3---3---1---1-/-3---3---3---1----|

VERSION 2 - Tabbed by Will Donovan

Verse Riff  at 0:25 and 1:19
----------------------------------|----------------------------------------------
----------------------------------|----------------------------------------------               
----------------------------------|---------------------------------------------- x3 (before each chorus)
6-6-6-6---6-6-6-7-7-7-7---7-7-7---|---2-2-2-2---0-2-0-2---2-2-2-2--0-2-0-2-----
                                                    (stop here and go to chorus on 3rd time)
 
Chorus at 1:00 - 1:52 - 2:46                                       1:00  X3
--------------------------------------------------------------     1:52  X2 (do "B" x2)
--------------------------------------------------------------     2:46  X3 (do "B" x2 on 2nd time)
--------------------------------------------------------------
-0-2-2-2-2-2-2-0-2---0-2-2-2-2-2-2-0-2---5-5-5-5--0-0-0-0-
              A                           B
 
thatís it!
 
-Will 

JASON'S EVERCLEAR TABS - http://members.tripod.com/~panec/