"You Make Me Feel Like A Whore" (Bass)
As recorded by Everclear on "Sparkle & Fade"
Tabbed by Ashton Bailey (ashton_bailey@hotmail.com)

Intro
G|---------------------------------------|
D|---------------------------------------|
A|--5-5-5-5-----5-5-5-5\3-3-3-3/5-5-5-5--|
E|---------------------------------------|
       D           D       C       D

Main Verse
G|---------------------------------------|
D|---------------------------------------|
A|--5-5-5-5-----5-5-5-5\3-3-3-3\2-2-2-2--|
E|---------------------------------------|
       D           D       C       Bb

G|------------------------------|
D|------------------------------|
A|-----2-2-2-2\0-0-0-0/5-5-5-5--|
E|------------------------------|
          Bb      A       D

Chorus
G|-----------------------------------------|
D|-----------------------------------------| Repeat as needed
A|-----------------------------------------|
E|--3-3-3-3---5-5-5-5---2-2-2-2---7-7-7-7--|
       G         A        F#         b

Outro
G|---------------------------------------|
D|---------------------------------------|
A|--5-5-5-5-----5-5-5-5\3-3-3-3/5-5-5-5--|
E|---------------------------------------|
       D           D       C       D

JASON'S EVERCLEAR TABS - http://members.tripod.com/~panec/