You Make Me Feel Like A Whore
As recorded by Everclear on "Sparkle & Fade"
Tabbed by Ashton Bailey (ashton_bailey@hotmail.com) and Steve Smith (sesmith3@eos.ncsu.edu)

VERSION 1 - Tabbed by Ashton Bailey

Key:
pm = palm mute
\ = slide up towards the headstock
/ = slide down towards the body
fb = feedback
h = hammer
b = bend string
r = release string
rr = ring (let string ring)
v = strum down
^ = strum up
~ = Hold Note
X = Pick Scrape

Intro

Guitar 1 (Heavy Distortion)
e|--------------------------------------------------------------------|
B|--------------------------------------------------------------------|
G|--7-7-7-7-----7-7-7-7\5-5-5-5/-7-7-7-7-----7-7-7-7\5-5-5-5/7-7-7-7--|
D|--7-7-7-7-----7-7-7-7\5-5-5-5/-7-7-7-7-----7-7-7-7\5-5-5-5/7-7-7-7--|
A|--5-5-5-5-----5-5-5-5\3-3-3-3/-5-5-5-5-----5-5-5-5\3-3-3-3/5-5-5-5--|
E|--------------------------------------------------------------------|
       D           D       C        D           D       C       D

e|--------------------------------------------------------|
B|--------------------------------------------------------|
G|--7-7-7-7\5-5-5-5/-7-7-7-7-----7-7-7-7\5-5-5-5/7-7-7-7--|
D|--7-7-7-7\5-5-5-5/-7-7-7-7-----7-7-7-7\5-5-5-5/7-7-7-7--|
A|--5-5-5-5\3-3-3-3/-5-5-5-5-----5-5-5-5\3-3-3-3/5-5-5-5--|
E|--------------------------------------------------------|
       D       C        D           D       C       D

e|-------------------------------------------------------------------|
B|-------------------------------------------------------------------|
G|--7-7-7-7-----7-7-7-7\5-5-5-5\4-4-4-4-----4-4-4-4\2-2-2-2/7-7-7-7--|
D|--7-7-7-7-----7-7-7-7\5-5-5-5\4-4-4-4-----4-4-4-4\2-2-2-2/7-7-7-7--|
A|--5-5-5-5-----5-5-5-5\3-3-3-3\2-2-2-2-----2-2-2-2\0-0-0-0/5-5-5-5--|
E|-------------------------------------------------------------------|
       D           D       C       Bb          Bb      A       D

e|-------------------------------------------------------|
B|-------------------------------------------------------|
G|--7-7-7-7\5-5-5-5\4-4-4-4-----4-4-4-4\2-2-2-2/7-7-7-7--|
D|--7-7-7-7\5-5-5-5\4-4-4-4-----4-4-4-4\2-2-2-2/7-7-7-7--|
A|--5-5-5-5\3-3-3-3\2-2-2-2-----2-2-2-2\0-0-0-0/5-5-5-5--|
E|-------------------------------------------------------|
      D       C       Bb          Bb      A       D

e|-------------------------------------------------------|
B|-------------------------------------------------------|
G|--7-7-7-7\5-5-5-5\4-4-4-4-----4-4-4-4\2-2-2-2/7-7-7-7--|
D|--7-7-7-7\5-5-5-5\4-4-4-4-----4-4-4-4\2-2-2-2/7-7-7-7--|
A|--5-5-5-5\3-3-3-3\2-2-2-2-----2-2-2-2\0-0-0-0/5-5-5-5--|
E|-------------------------------------------------------|
      D       C       Bb          Bb      A       D

Main Verse (Palm Muted)
e|-------------------------------------------------------------------|
B|-------------------------------------------------------------------|
G|--7-7-7-7-----7-7-7-7\5-5-5-5\4-4-4-4-----4-4-4-4\2-2-2-2/7-7-7-7--|
D|--7-7-7-7-----7-7-7-7\5-5-5-5\4-4-4-4-----4-4-4-4\2-2-2-2/7-7-7-7--|
A|--5-5-5-5-----5-5-5-5\3-3-3-3\2-2-2-2-----2-2-2-2\0-0-0-0/5-5-5-5--|
E|-------------------------------------------------------------------|
       D           D       C       Bb          Bb      A       D

Chorus
e|--3-3-3-3---5-5-5-5---2-2-2-2---7-7-7-7--|
G|--3-3-3-3---5-5-5-5---2-2-2-2---7-7-7-7--|
B|--4-4-4-4---6-6-6-6---3-3-3-3---8-8-8-8--| Repeat
D|--5-5-5-5---7-7-7-7---4-4-4-4---9-9-9-9--|
A|--5-5-5-5---7-7-7-7---4-4-4-4---9-9-9-9--|
E|--3-3-3-3---5-5-5-5---2-2-2-2---7-7-7-7--|
       G         A        F#         b

Guitar Solo
e|-----------------------10-12-12-----------------------|
B|-----------------10-12----------12-10----10-12-12-----|
G|--11-11-11-11-11----------------------11----------11--|  Repeat 4 times
D|------------------------------------------------------|  then go
A|------------------------------------------------------|
E|------------------------------------------------------|

Guitar solo Continued
e|---------------------------------------------------|
B|---------------------------------------------------|
G|--12-12-12-12-12-12-12-12/14-14-14-14-14-14-14-14--|
D|---------------------------------------------------|
A|---------------------------------------------------|
E|---------------------------------------------------|

Guitar Solo Continued
e|----------------------------------------------------|
B|----------------------------------------------------|
G|--14/16-16-16-16/18-18-18-18/19-19-19-19-20-20-20\--|
D|----------------------------------------------------|
A|----------------------------------------------------|
E|----------------------------------------------------|

Outro

Same as the intro, you figure it out, listen to the cd.

VERSION 2 - Tabbed by Steve Smith

Verse and intro:
e|-------------------------------------------------------
b|-------------------------------------------------------
g|-----7--7--7--xx--7-7/5--5--5--5--5--------------------
d|--7--7--7--7--xx--7-7/5--5--5--5--5--------------------
a|--5--5--5--5--xx--5-5/3--3--3--3--3--------------------
e|--------------------------------------------------------
play that several times then
e|-------------------------------------------
b|-------------------------------------------
g|-7-7-7-7-5-5-5-5-4-4-4-x-x-x-x-4-4-2-2-7-7-
d|-7-7-7-7-5-5-5-5-4-4-4-x-x-x-x-4-4-2-2-7-7-
a|-5-5-5-5-3-3-3-3-2-2-2-x-x-x-x-2-2-0-0-5-5-
e|-------------------------------------------

chorus
e|-------------------------------------------
b|-------------------------------------------
g|-------------------------------------------
d|--5----5----5---5---7---7---7--------------
a|--5----5----5---5---7---7---7--------------
e|--3----3----3---3---5---5---5--------------
________there is this place inside 

e|---------------------------------------------------------
b|---------------------------------------------------------
g|---------------------------------------------------------
d|-4-----4----4-------9----------9---9---------------------
a|-4-----4----4-------9----------9---9---------------------
e|-2-----2----2-------7----------7---7---------------------
_____where all the good things die

e|----------------------------------------------------------
b|----------------------------------------------------------
g|----------------------------------------------------------
d|--5--5--5--5--5--5-7-7-7-7-7------------------------------
a|--5--5--5--5--5--5-7-7-7-7-7------------------------------
e|--3--3--3--3--3--3-5-5-5-5-5------------------------------
______sometimes I feel like a whore

solo (this is played VERY rapidly)
play this riff 4 times
e|------------------------------10-12-10---------------------
b|-------------------10--12----------------12-10----10-12-10-
g|-11-11-11-11-----------------------------------11----------
d|-----------------------------------------------------------
a|-----------------------------------------------------------
e|-----------------------------------------------------------

comments?
sesmith3@eos.ncsu.edu

Suggestion by Zach Larsen (ARod5903@aol.com)

In YMMFLAW.. the solo you guys have is ALL WRONG... cant you hear the hammers and pulls??? 
 the first half of the solo should go like this...
Guitar Solo
e|-----------------------10h12-12-----------------------|
B|-----------------10h12----------12p10----10h12p10-----|
G|--11-11-11-11-11----------------------11----------11--|  Repeat 4 times
D|------------------------------------------------------|  then go
A|------------------------------------------------------|
E|------------------------------------------------------

The rest is accurate, but those are definitely pulls and hammers in there!  THANKS~ Zach Larsen

JASON'S EVERCLEAR TABS - http://members.tripod.com/~panec/