Your New Disease
As recorded by Everclear on the Japanese Import of "Slow Motion Daydream"
Tabbed by Will Donovan (everclear792@msn.com)

this is my first tab and well, it sucks. but its better than nothing
-Will

part 1 (at 0:13-0:35,0:57-1:08)
--------------------------------------------------------------------------------------- |
--------------------------------------------------------------------------------------- 
--------------------------------------------------------------------------------------- x4 | x2 
--------------------------------------------------------------------------------------- 
----7-7-7-7-7---7-7-7-7-8-6------7-7-7-7-7---7-7-7-7-8------------------------------
----5-5-5-5-5---5-5-5-5-6-4------5-5-5-5-5---5-5-5-5-6------------------------------

part 2 (at 0:36-0:57,2:15-2:36)
--------------------------------------------------------------------------------------- |
--------------------------------------------------------------------------------------- 
--------------------------------------------------------------------------------------- x4 | x4
--------------------------------------------------------------------------------------- 
-----7-7-7-7-7---7-7-7-7-8-8-8---7-7-7-7---7-7-7-7-6-6-6---------------------------
-----5-5-5-5-5---5-5-5-5-6-6-6---5-5-5-5---5-5-5-5-4-4-4----------------------------
pm.....................................................................................

(repeat part 1)

part 3 (at 2:36-2:54)
------------------------------------------------------------------------------------- 
------------------------------------------------------------------------------------- 
------------------------------------------------------------------------------------- x4
-------------------------------------------------------------------------------------
--6x6x6x6x---3x3x3x3x---8x8x8x8---6x6x10x10x--------------------------------------
--4x4x4x4x---1x1x1x1x---6x6x6x6---4x6x-8x--8x-------------------------------------

part 4 (at 3:08-3:18)
------------------------------------------------------------------------------------
------------------------------------------------------------------------------------
------------------------------------------------------------------------------------
------------------------------------------------------------------------------------ 
--7-7-7--4--6-6-6--5--------------------------------------------------------------- x4
--5-5-5--2--4-4-4--3--------------------------------------------------------------

part 7 (3:20-3:41)
------------------------------------------------------------------------------------
------------------------------------------------------------------------------------
------------------------------------------------------------------------------------ 
------------------------------------------------------------------------------------ x17
-----7-7-7-7-7---------------------------------------------------------------------
-----5-5-5-5-5---------------------------------------------------------------------

JASON'S EVERCLEAR TABS - http://members.tripod.com/~panec/